ConnexionConnexionInscription
B E A D G
115 connectés Aller à Sweepyto Guitare

Guns N' Roses - Knocking On Heaven's Door [ Artiste ]

Publié par le
13/10/2012
15610 vues
Débutant 3
http://www.youtube.com/watch?v=vcWTTs8QVRc
    
        

VERSE
G |---------------------------------------------------------------------|
D |---------------------------------------------------------------------|
A |------5---5------------------------------5---5-3---3-3-3-0-3-3-0-3---|
E |-3--3-------5--5-5-5-5-5-5-5-5------3--3-----------------------------|

CHORUS
G |---------------------------------------------------------------------|
D |----------------7--5-------------------------------------------------|
A |------5---5-----------7--5--3------------5---5-3---3-3-3-0-3-3-0-3---|
E |-3--3-------5-5---------------------3--3-----------------------------| 


    
    

2 Commentaires

1 2 3 4 5
1 note
Notes pour Knocking On Heaven's Door Basse Tab - (Guns N' Roses) | Slappyto : 5/5 sur 1 note
#2
22/10/2013 18:07:24
Salut Nootiz, avant tout merci pour ta contribution et à travers toi tous ceux qui déposent des tablatures qui me sont très utiles. Cependant à l'oreille j'ai l'impression que le DO final serai avantageusement remplacé par un SOL. Qu'en penses tu?

Musicalement EvilCid
0
0
#1
19/02/2013 20:45:06

j adore cette musique dommage qu il ya pas la tab entiere

0
0

En Live

Glimmerkajal vient tout juste de rejoindre la communauté Slappyto. Bienvenue ! il y a 2 jours
Wario a commenté le topic [videothèque des sons] de mr gone il y a 1 semaine
Lebollos59 vient tout juste de rejoindre la communauté Slappyto. Bienvenue ! il y a 1 semaine
GregRock vient tout juste de rejoindre la communauté Slappyto. Bienvenue ! il y a 1 semaine
Chris927 vient tout juste de rejoindre la communauté Slappyto. Bienvenue ! il y a 2 semaines
Greeshma vient tout juste de rejoindre la communauté Slappyto. Bienvenue ! il y a 2 semaines
Ludo ZEFISH vient tout juste de rejoindre la communauté Slappyto. Bienvenue ! il y a 2 semaines
Nicobass1793 vient tout juste de rejoindre la communauté Slappyto. Bienvenue ! il y a 2 semaines
Indonesiae vient tout juste de rejoindre la communauté Slappyto. Bienvenue ! il y a 2 semaines