ConnexionConnexionInscription
B E A D G
6 connectés Aller à Sweepyto Guitare

Noir Désir - A Ton Etoile [ Artiste ]

Publié par le
13/10/2012
5595 vues
Débutant 1
http://www.youtube.com/watch?v=S1kxZPOyCeg
    
        

Album Live En public

G||--------------|--------------| 
D||--------------|--------------| 
A||--3-----------|---------6-5--| 
E||-------------3|--4-----------|


G||--------------|--------------| 
D||-----------5--|--------------| 
A||--3--X--X-----|---------6-8--| 
E||-------------3|--4-6-8-------|

G||--------------|--------------| 
D||-----------5--|--------------| 
A||--3--X--X-----|---------6-5--| 
E||-------------3|--4-6-8-------|

G||--------------|--------------| 
D||-----------5--|--------------| 
A||--3--X--X-----|---------6----| 
E||-------------3|--4-6-8----6-8|



G||--------------------|--------------------| 
D||-----5--------------|-----5--------------| 
A||--3-----5--1-----1--|--3-----5--1-----1--| 
E||--------------3-----|--------------3-----| 


G||--------------------|--------------------| 
D||-----5--------------|-----5--------------| 
A||--3-----5--1-----1--|--3-----5--1-----1--| 
E||--------------3-----|--------------3-----| 


G||--------------------|--------------------| 
D||--------------------|--------------------| 
A||-----6--8--6--5--6--|-----5--6--5-----5--| 
E||--4-----------------|--6-----------6-----|
    
    

4 Commentaires

1 2 3 4 5
1 note
Notes pour A Ton Etoile Basse Tab - (Noir Désir) | Slappyto : 5/5 sur 1 note
#4
13/10/2012 13:58:20
J'ai modifié le titre c'est pas En Image mais En Public (l'un DVD l'autre CD)
0
0
#3
13/10/2012 13:55:23
Si si c'est bien celui ci poppyto
0
+1
0
+1
#1
13/10/2012 13:51:25

Pas de lien deezer ou youtube pour avoir la piste audio ? 

0
0

En Live

Yvesson a commenté le topic [Le Topic du Freepost 7] de Vikie il y a 1 heure
Yvesson, sam et YannGGP ont commenté le topic [La mort de Slappyto?] de kurt il y a 1 heure
Glimmerkajal vient tout juste de rejoindre la communauté Slappyto. Bienvenue ! il y a 2 jours
Wario a commenté le topic [videothèque des sons] de mr gone il y a 1 semaine
Lebollos59 vient tout juste de rejoindre la communauté Slappyto. Bienvenue ! il y a 1 semaine
GregRock vient tout juste de rejoindre la communauté Slappyto. Bienvenue ! il y a 1 semaine
Chris927 vient tout juste de rejoindre la communauté Slappyto. Bienvenue ! il y a 2 semaines
Greeshma vient tout juste de rejoindre la communauté Slappyto. Bienvenue ! il y a 2 semaines