ConnexionConnexionInscription
B E A D G
146 connectés Aller à Sweepyto Guitare

The Human League - Keep Feeling Fascination [ Artiste ]

Publié par le
02/11/2012
2898 vues
Débutant 1
http://www.youtube.com/watch?feature=player_emb...
    
        

SECTION 1:
G|-----------|-----------|-----------|-----2-4-2-|
D|-----2-3-2-|-----3-5-5-|-----2-3-2-|-----------|
A|-3---------|-5---------|-3---------|-5---------|
E|-----------|-----------|-----------|-----------|

SECTION 2:
G|---------------|
D|---------------|
A|---------------|
E|-3---3p1-1-1-3-|

SECTION 3:
G|-----------|-----------|-----------|-----------|-----------|-----------|-----------|-----------|
D|-----2-3-2-|-----3-5-5-|-----2-3-2-|-----3-5-5-|-----2-3-2-|-----3-5-5-|-----2-3-2-|-----3-5-5-|
A|-3---------|-5---------|-3---------|-5---------|-3---------|-5---------|-3---------|-5---------|
E|-----------|-----------|-----------|-----------|-----------|-----------|-----------|-----------|

HERE IS THE WHOLE STRUCTURE;

SECTION 1
SECTION 2 x24
SECTION 3
SECTION 2 x16
SECTION 3
SECTION 2 x18
SECTION 3
SECTION 2 (repeat till fade)
    
    

1 Commentaire

1 2 3 4 5
1 note
Notes pour Keep Feeling Fascination Basse Tab - (The Human League) | Slappyto : 5/5 sur 1 note
#1
02/11/2012 13:31:42
Rien que pour le choix du groupe ça faut 5 étoiles 
0
+1

En Live

Wario a commenté le topic [videothèque des sons] de mr gone il y a 2 jours
Lebollos59 vient tout juste de rejoindre la communauté Slappyto. Bienvenue ! il y a 3 jours
GregRock vient tout juste de rejoindre la communauté Slappyto. Bienvenue ! il y a 3 jours
Chris927 vient tout juste de rejoindre la communauté Slappyto. Bienvenue ! il y a 1 semaine
Greeshma vient tout juste de rejoindre la communauté Slappyto. Bienvenue ! il y a 1 semaine
Ludo ZEFISH vient tout juste de rejoindre la communauté Slappyto. Bienvenue ! il y a 1 semaine
Nicobass1793 vient tout juste de rejoindre la communauté Slappyto. Bienvenue ! il y a 1 semaine
Indonesiae vient tout juste de rejoindre la communauté Slappyto. Bienvenue ! il y a 1 semaine
Grandbill a commenté la tablature de Coup_de_pelle il y a 1 semaine