ConnexionConnexionInscription
B E A D G
170 connectés Aller à Sweepyto Guitare

Calogero - Un Jour Au Mauvais Endroit [ Artiste ]

Publié par le
23/09/2014
24267 vues
Débutant 3
http://www.youtube.com/watch?v=5SDV_h9RgI8
    
        

Couplet :

G|----------------------------------------------------------------------------|  x4
D|-9-9-12-12-----------9-9-12-12----------------------------------------------|
A|-----------9-9-12-12-----------9-9-12-12--10-10-10--10--10-9-7-7-7--7--7-7--|
E|----------------------------------------------------------------------------|  

Refrain :

G|----------------------------------------------------------------------------|  x2
D|----------------------------------------------------------------------------|
A|-2(x8)-2(x6)-4-5(x8)-5(x6)-7--------------5h7------5h7--10--9---------------|
E|------------------------------2(x16)--0-0------0-0-------------10--9--7--5--|

Couplet

Refrain

(piano)

Final : 

G|-------------------------------------------------------------------------|
D|-------------------------------------------------------------------------|
A|-2(x8)-2(x4)-5--2--5(x8)-5(x4)-7--5--------------------------------------|
E|-------------------------------------2(x8)-2(x4)-5--2--5(x8)-5(x4)-7--5--|

G|---------------------------------------|
D|---------------------------------------|
A|-----5h7------5h7--10--9---------------|
E|-0-0------0-0-------------10--9--7--5--|


    
    

3 Commentaires

1 2 3 4 5
1 note
Notes pour Un Jour Au Mauvais Endroit Basse Tab - (Calogero) | Slappyto : 5/5 sur 1 note
#3
20/11/2014 11:11:20

Merci

0
0
#2
14/11/2014 20:57:48

2(x8) signifie qu'il faut jouer 8 fois de suite la note sur la frette 2. Dans 4-5(x8), on joue une fois la frette 4 puis 8 fois la frette 5.

 

5h7 signifie qu'il faut jouer la frette 5 normalement puis la frette 7 en hammer-on, c'est à dire en frappant la frette avec la main gauche mais sans jouer la note avec la main droite.

0
0
#1
14/11/2014 15:18:14

Bonjour a tous, 

 

quelqu'un peut m'aider a déchiffrer cette ligne de basse ?

 

es ce que sur la troisième corde deuxième frette il faut jouer 8 fois puis 6 fois et 4-5 il faut faire quoi? 

 

et que veut dire 5h7

 

Merci  Didier

|------------------------------------------------  
D|----------------------------------------------- 
A|-2(x8)-2(x6)-4-5(x8)-5(x6)-7--------------5h7--  
    
0
0

En Live

Chirac, popolito, mescalito et grobass ont commenté le topic [La Ligue des Célibasseux 3] de Aeros'Miss il y a 3 heures
Chirac et popolito ont commenté le topic [Enlarge your genderfluidity] de Chirac il y a 3 heures
Chirac, popolito, mescalito et grobass ont commenté le topic [Le Topic du Freepost 7] de Vikie il y a 3 heures
Tazzzbass a commenté le topic [Vends Warwick Thumb Nt5 1600€] de tazzzbass il y a 19 heures
ClemCim vient tout juste de rejoindre la communauté Slappyto. Bienvenue ! il y a 1 jour
TiTi Bass a voté pour le message de ypikai il y a 1 jour
TiTi Bass vient tout juste de rejoindre la communauté Slappyto. Bienvenue ! il y a 1 jour
Valaos vient tout juste de rejoindre la communauté Slappyto. Bienvenue ! il y a 1 jour
Popolito a commenté le topic [Mesa Boogie M-Pulse 600] de popolito il y a 2 jours