ConnexionConnexionInscription
B E A D G
115 connectés Aller à Sweepyto Guitare

Milky Chance - Stolen Dance [ Artiste ]

Publié par le
23/09/2014
12836 vues
Débutant 1
http://www.youtube.com/watch?v=iX-QaNzd-0Y
    
        

Tempo = 114



               
G||-------||--------------------------|----------------------|
D||-------||*-------------------------|----------------------|
A||-------||*-------------------------|----------------------|
E||-------||---4-------4--2-----2-----|--0-------------------|

                        12345_____________        6_______________

                                                6x  
-----------------------|------------------------||----------------------|
-----------------------|--1--------------1-----*||--1-------------------|
--2-----------------2--|--------------------2--*||----------------------|
-----------------------|------------------------||----------------------|


         20x  
|---------||--------------------------|----------------------|
|*-------*||*-------------------------|----------------------|
|*-------*||*-------------------------|----------------------|
|---------||---4-------4--2-----2-----|--0-------------------|

                        12345_____________        6______________

                                               6x
-----------------------|------------------------||----------------------|
-----------------------|--1--------------1-----*||--1-------------------|
--2-----------------2--|--------------------2--*||----------------------|
-----------------------|------------------------||----------------------|


          2x   
|---------||--------------------------|----------------------|
|*-------*||*-------------------------|----------------------|
|*-------*||*-------------------------|----------------------|
|---------||---4-------4--2-----2-----|--0-------------------|


                                                3x   
-----------------------|------------------------||------------------------|
-----------------------|--1--------------1-----*||*--2----------2----4----|
--2-----------------2--|--------------------2--*||*-----------------------|
-----------------------|------------------------||------------------------|

                                               123_______________

                                                                      4x
----------------------|-----------------------|-------------------------||
----------------------|--1----------1---------|------------------------*||
--2----------------2--|------------------2----|---------------------2--*||
----------------------|-----------------------|--4----------2-----------||

4______________

                               2x  
----------------------||-------||--------------------------|
----------------------||*-----*||*-------------------------|
----------------------||*-----*||*-------------------------|
--4-------------------||-------||---4-------4--2-----2-----|


                                                                      4x
----------------------|-----------------------|------------------------||
----------------------|-----------------------|--1--------------1-----*||
----------------------|--2-----------------2--|--------------------2--*||
--0-------------------|-----------------------|------------------------||


    
    

0 Commentaires : réagissez !

1 2 3 4 5
1 note
Notes pour Stolen Dance Basse Tab - (Milky Chance) | Slappyto : 5/5 sur 1 note
Aucun commentaire !

En Live

Saikodoll vient tout juste de rejoindre la communauté Slappyto. Bienvenue ! il y a 2 jours
Bertrand44 vient tout juste de rejoindre la communauté Slappyto. Bienvenue ! il y a 3 jours
OLIVIER59500 vient tout juste de rejoindre la communauté Slappyto. Bienvenue ! il y a 3 jours
Jazzbassfoufou vient tout juste de rejoindre la communauté Slappyto. Bienvenue ! il y a 4 jours
MrSpit a commenté le topic [Sandberg Fretless] de MrSpit il y a 4 jours