ConnexionConnexionInscription
B E A D G
152 connectés Aller à Sweepyto Guitare

Jamiroquai - Stillness in time (couplet 2ième partie)

Publié par le
10/04/2006
18292 vues
Avancé 1
Vitesse NormaleNormal speed Vitesse RalentieSlow down speed
G ------------------|--------------------|-----------------------|
D ------6--8-8------|--------------------|-----6--8h10p8---6h8-6-|
A ----6---------x---|4-x-4--4-4--x-4-5-6-|---6-----------6-------|
E -4--------------4-|--------------------|4----------------------|

G ------------------|-----------------|----------------|
D ------------------|-----4--6-6------|----------------|
A -4--x-4-4--x4-5-6-|---4---------x---|2--2-2--x-2-3-4-|
E ------------------|2--------------2-|----------------|

G -----------------------|-------------------|
D ------4--6h8p6---4h6-4-|-------------------|
A ----4----------4-------|2--2-2--2--x-2-2-2-|
E -2---------------------|-------------------|
La deuxième partie est joué dans la même lignée que la première. Faites groover !

0 Commentaires : réagissez !

1 2 3 4 5
0 notes
Aucun commentaire !

En Live

Golmout80 vient tout juste de rejoindre la communauté Slappyto. Bienvenue ! il y a 10 heures
Skydrover a commenté le topic [30 W tout lampes, suffisant ?] de skydrover il y a 11 heures
Skydrover a commenté le topic [30 W tout lampes, suffisant ?] de skydrover il y a 12 heures