ConnexionConnexionInscription
B E A D G
140 connectés Aller à Sweepyto Guitare

Rancid - Poison

Publié par le
31/03/2006
42557 vues
Moyen 3
Vitesse NormaleNormal speed Vitesse RalentieSlow down speed
G-------------------------------------------------------|
D----------------------------------------7-777777-------|
A--3-333333--(x4)-----7-777777--(x4)--------------------|
E-------------------------------------------------------|
^ ^v^v^v ^ ^v^v^v ^ ^v^v^v

G--5-5555----7--9--7--5--7--5-----5---------------------|
D------------------------------7-----7------------------|
A-------------------------------------------------------|
E-------------------------------------------------------|
^ ^v^v ^ v ^ v ^ v ^ v ^

G-------------5-555555----------------------------------|
D-------------------------7-6-5-------------------------|
A--8-888888-----------------------8-7-5----3-2-3--------|
E-------------------------------------------------------|
^ ^v^v^v ^ ^v^v^v ^ v ^ v ^ v ^ v ^
Ah, encore un morceau de Rancid bien soutenu par la basse! Le but ici est d'être très régulier sur les allers retours, c'est dur de tenir le rythme pendant tout le morceau. Donc ... à n'attaquer que si vous êtes déjà à l'aise avec des morceaux comme Loki.

0 Commentaires : réagissez !

1 2 3 4 5
0 notes
Aucun commentaire !

En Live

Skydrover a commenté le topic [30 W tout lampes, suffisant ?] de skydrover il y a 19 minutes
Golmout80 vient tout juste de rejoindre la communauté Slappyto. Bienvenue ! il y a 11 heures
Skydrover a commenté le topic [30 W tout lampes, suffisant ?] de skydrover il y a 12 heures
Skydrover a commenté le topic [30 W tout lampes, suffisant ?] de skydrover il y a 12 heures