ConnexionConnexionInscription
B E A D G
74 connectés Aller à Sweepyto Guitare

Composition - Poppyxies - Part 8

Publié par le
31/03/2006
19876 vues
Débutant 3
Vitesse NormaleNormal speed
|---------------11-----x--11--|
|--------9-11-9---------------|
|-----------------------------|
|--0---0----------------------|


|-----------------------------|--------4-6-4-------------|
|--------9-11-9---------------|--------------6-----------|
|---------------11-----x--11--|--------------------------|
|--9---9----------------------|--4---4-------------x--4--|


|--------------------------|-------------------||
|--------6-7-6-------------|-------------------||
|--------------7-----x--7--|-------------------||
|--5---5-------------------|--0----------------||
Deux nouveaux éléments. Ici le charleston du batteur n’a plus un débit de croche mais un débit à la double croche. La basse est plus mélodique et joue un motif rythmique répétitif. Avec les guitares acoustiques l’ensemble sonne très pop.

0 Commentaires : réagissez !

1 2 3 4 5
0 notes
Aucun commentaire !

En Live

Gwlolos a commenté le topic [problème grésilllemnt ampli] de escaliyo il y a 4 heures
Ray a voté pour le message de Mat 31 il y a 1 jour
Pat et Hipi Débwa ont commenté le topic [Morceaux raggae] de Sasou il y a 1 jour
Sasou vient tout juste de rejoindre la communauté Slappyto. Bienvenue ! il y a 2 jours
Captain Biftek a voté pour le message de briciu il y a 2 jours