ConnexionConnexionInscription
B E A D G
146 connectés Aller à Sweepyto Guitare

Lonnie Liston Smith - Expansions (Pub Bouygues Telecom)

Publié par le
01/04/2006
47372 vues
Moyen 4
Vitesse NormaleNormal speed Vitesse RalentieSlow down speed
G -----------3-0-5-5-5--3-----|--------------------------|------
D ----1-3/5----------------5--|--3--1-1---------------0--|------
A -3--------------------------|----------3-X-1-----1-----|--3---
E ----------------------------|-----------------3--------|------


G ---------3-0-5-5-5--3-----|------------------------------|-
D --1-3/5----------------5--|--3-3-3--1-1---------------0--|-
A --------------------------|--------------3-X-1-----1-----|-3
E --------------------------|---------------------3--------|-

Bonjour à tous !
Bon, c'est la première fois que je fais ça donc....
Voici un petit extrait de la ligne de basse (en fait c'est une contre basse) de la musique de la PUB "bouygues telecom". Le nom du groupe c'est LONNIE LISTON SMITH & the cosmics echoes et c'est la tuerie! (enfin j'aime :)
La difficulté, à mon sens, se situe au niveau des notes triplées. Je pense aussi que pour le groove, il n'est pas nécéssaire de la jouer "propre" mais un petit peu tendue (un chouilla devant).
Voilà, je dirai bien de la bosser au métronome mais si vous connaissez l'originale ben....il n'y en a pas de métronome (ça accélère :)))!

A+
Warwick13

0 Commentaires : réagissez !

1 2 3 4 5
2 notes
Notes pour Expansions (Pub Bouygues Telecom) - Lonnie Liston Smith - Cours de basse vidéo | Slappyto : 5/5 sur 2 notes
Aucun commentaire !

En Live

Golmout80 vient tout juste de rejoindre la communauté Slappyto. Bienvenue ! il y a 10 heures
Skydrover a commenté le topic [30 W tout lampes, suffisant ?] de skydrover il y a 11 heures
Skydrover a commenté le topic [30 W tout lampes, suffisant ?] de skydrover il y a 12 heures