ConnexionConnexionInscription
B E A D G
139 connectés Aller à Sweepyto Guitare

Rancid - Maxwell murder (solo)

Publié par le
31/03/2006
36700 vues
Moyen 3
Vitesse NormaleNormal speed Vitesse RalentieSlow down speed
pour les coups de médiator,
allez-y comme vous voulez :)

G--5-5---5-5-5---5-5-5---5-5-5-----5-5------------------|
D------7-------7-------7-------7-7-----7-7-5-5-3-3------|
A-------------------------------------------------------|
E-------------------------------------------------------|

G--3-3---------------------------5-7-5------------------|
D------5-5-3-3-0-0-----0-0-3-3-5-------7----------------|
A------------------3-3----------------------------------|
E-------------------------------------------------------|

G----------------------------------7-----10s15----------|
D--5-5-3-5-3-0------------------------------------------|
A--------------3-0-5-5---5-5-5-5-5---5s8----------------|
E-------------------------------------------------------|

G--12-12-10-10-12-12-10-12------------------------------|
D--------------------------10-10-12-12-10-10-12---------|
A-------------------------------------------------------|
E-------------------------------------------------------|

G----19---17--------------------------------------------|
D--0----0----0-0-0-0-20-0-19-0-17-17-17-15-14-----------|
A---------------------------------------------17-15-12--|
E-------------------------------------------------------|
Et donc voilà le solo ! Aors que dire, donc déjà, c'est _ma_ version de la tablature, donc il est possible qu'on ne soit pas d'accord sur certaines notes ... mais on peut en discuter :) Dans un premier temps, entrainez vous à la jouer lentement, au ralenti, pour vous familiariser avec les mouvements. Ca ne sert à rien de se jeter dessus "vitesse réèle", on n'avance pas ... Voilà ! Une fois que le solo tourne bien, si vous vous embetez, vous pouvez vous tournez vers Axiom, mais attention c'est le niveau au dessus !

0 Commentaires : réagissez !

1 2 3 4 5
0 notes
Aucun commentaire !

En Live

Golmout80 vient tout juste de rejoindre la communauté Slappyto. Bienvenue ! il y a 10 heures
Skydrover a commenté le topic [30 W tout lampes, suffisant ?] de skydrover il y a 11 heures
Skydrover a commenté le topic [30 W tout lampes, suffisant ?] de skydrover il y a 12 heures