ConnexionConnexionInscription
B E A D G
163 connectés Aller à Sweepyto Guitare

Red Hot Chili Peppers - Scar Tissue

Publié par le
02/12/2007
71210 vues
Débutant 4
Vitesse NormaleNormal speed Vitesse RalentieSlow down speed
G------------------------|------------------------|
D-3---3-3----------------|------------------3-2---|
A----------X-0-X-0---X-3-|-3/5---5--5-5---X-----3-|
E------------------------|------------------------|

G------------------------|---------------------------|
D-3---3-3----------------|-----------------------0---|
A----------X-0-X-0---X-3-|-3/5---5--5-5------3-----3-|
E------------------------|---------------X-3---X-----|
Très bon plan à jouer cool mais il ne faut pas oublier le groove !!! La tablature peut sembler un peu difficile lorsqu'on regarde comme ça...mais si vous connaissez la chanson ( ce qui est probablement sûr ;o) ) vous verrez qu'on s'y retrouve finalement :o)

0 Commentaires : réagissez !

1 2 3 4 5
0 notes
Aucun commentaire !

En Live

Gomazio56 vient tout juste de rejoindre la communauté Slappyto. Bienvenue ! il y a 2 jours
Wario a commenté le topic [videothèque des sons] de mr gone il y a 4 jours
Lwyfs vient tout juste de rejoindre la communauté Slappyto. Bienvenue ! il y a 5 jours
Remitobass vient tout juste de rejoindre la communauté Slappyto. Bienvenue ! il y a 1 semaine
Papihendrix vient tout juste de rejoindre la communauté Slappyto. Bienvenue ! il y a 1 semaine
Services vient tout juste de rejoindre la communauté Slappyto. Bienvenue ! il y a 2 semaines
Haga187 vient tout juste de rejoindre la communauté Slappyto. Bienvenue ! il y a 2 semaines