ConnexionConnexionInscription
B E A D G
114 connectés Aller à Sweepyto Guitare

Red Hot Chili Peppers - No Chump Love Sucker

Publié par le
22/08/2007
20770 vues
Moyen 4
Vitesse NormaleNormal speed Vitesse RalentieSlow down speed
G |-----------|-----------|-----------|---7-------|
D |-----0h2---|-----0h2---|------0h2--|5--------7-|
A |-----------|-----------|-----------|------5----|
E |0--x-----0-|0--x-----0-|0--x-----0-|-----------|

G |-----------|-----------|-----------|---7-------|
D |-----0h2---|-----0h2---|------0h2--|5--------7-|
A |-----------|-----------|-----------|------5----|
E |0--x-----0-|0--x-----0-|0--x-----0-|-----------|
Alors voilà ici un 'tit morceau d'anthologie, tiré de l'album The Uplift Mofo Party Plan, où l'on perçoit bien le style qu'avaient les Red Hot à leurs débuts. Pour ceux qui ne l'auraient pas compris, il va falloir slaper ! Mais pas de soucis, tout va bien aller, l'enchaînement n'est pas bien dur.
Les seules difficultés consistent à gérer la vitesse et les cordes avides afin que ce ne soit pas une cacophonie. Il va falloir aussi s'habituer à faire des hammers sur la corde de Ré (en effet, on a plus souvent des hammers slapés que tirés) mais, cela dit, il ne devrait pas y avoir de difficultés majeures sur ce plan, si ce n'est la vitesse !

0 Commentaires : réagissez !

1 2 3 4 5
0 notes
Aucun commentaire !

En Live

Flea888 vient tout juste de rejoindre la communauté Slappyto. Bienvenue ! il y a 3 heures
Skydrover a commenté le topic [30 W tout lampes, suffisant ?] de skydrover il y a 3 heures
Golmout80 vient tout juste de rejoindre la communauté Slappyto. Bienvenue ! il y a 14 heures
Skydrover a commenté le topic [30 W tout lampes, suffisant ?] de skydrover il y a 15 heures
Skydrover a commenté le topic [30 W tout lampes, suffisant ?] de skydrover il y a 16 heures