ConnexionConnexionInscription
B E A D G
149 connectés Aller à Sweepyto Guitare

Noir Désir - L'homme pressé

Publié par le
02/11/2007
43858 vues
Débutant 4
Vitesse NormaleNormal speed Vitesse RalentieSlow down speed
|---------------------------------------------------
|---------------------------------------------------
|----------------------3----------------------3-----
|-5--0-3-5-0-3-5-0-3-5---5--0-3-5-0-3-5-0-3-5-------

|---------------------------------------------------
|----------------------3----------------------3-----
|-5--0-3-5-0-3-5-0-3-5---5--0-3-5-0-3-5-0-3-5-------
|-----------------------------------------------5---
Chanson hyper connue du groupe Noir Désir.
Il faut que les notes s'enchaînent de manière trés fluide et non saccadé ! C'est presque des hammers, sauf que ça n'en est pas hi hi quel dommage

0 Commentaires : réagissez !

1 2 3 4 5
1 note
Notes pour L'homme pressé - Noir Désir - Cours de basse vidéo | Slappyto : 3/5 sur 1 note
Aucun commentaire !

En Live

Skydrover a commenté le topic [30 W tout lampes, suffisant ?] de skydrover il y a 28 minutes
Golmout80 vient tout juste de rejoindre la communauté Slappyto. Bienvenue ! il y a 11 heures
Skydrover a commenté le topic [30 W tout lampes, suffisant ?] de skydrover il y a 12 heures
Skydrover a commenté le topic [30 W tout lampes, suffisant ?] de skydrover il y a 13 heures