ConnexionConnexionInscription
B E A D G
221 connectés Aller à Sweepyto Guitare

Red Hot Chili Peppers - Falling into grace

Publié par le
02/12/2007
26314 vues
Moyen 2
Vitesse NormaleNormal speed Vitesse RalentieSlow down speed
G----|-------------------------|--------------------|
D----|-------------------------|--------------------|
A----|---------0-2-3--2--------|--------0-2-3-------|
E--0-|-2-0-2-0-----------0-2-2-|--0-2-0-----------0-|

G-------------------------|------------------|
D-------------------------|------------------|
A---------0-2-3--2--------|--------0-2-------|
E-2-0-2-0-----------0-2-2-|--0-2-0-----2-----|
Un petit riff bien sympathique. Si vous avez dans le coin l'effet BOSS AW-2 Auto Wah, ça rendra encore mieux. A part ça, pas de difficultés. Cool non? :o)

Quite a nice one. It gets even better if you got a BOSS AW-2 Auto Wah. No big trouble here ! Cool huh ? =)

0 Commentaires : réagissez !

1 2 3 4 5
0 notes
Aucun commentaire !

En Live

Kyhr, Groumph!, Cell et Malicia ont commenté le topic [Le Topic du Freepost 7] de Vikie il y a 1 semaine
Cell et Groumph! ont commenté le topic [La mort de Slappyto?] de kurt il y a 1 mois
Cell et Poppy ont voté pour le message de Poppyto il y a 1 mois
Cell a voté pour le message de MasterFailure il y a 1 mois
Cell a voté pour le message de grobass il y a 1 mois
Cell a commenté le topic [une chope s'il vous plait !] de Adrien21 il y a 1 mois
Groumph! a voté pour le message de MasterFailure il y a 1 mois