ConnexionConnexionInscription
B E A D G
174 connectés Aller à Sweepyto Guitare

Red Hot Chili Peppers - I like dirt

Publié par le
02/12/2007
35582 vues
Débutant 4
Vitesse NormaleNormal speed Vitesse RalentieSlow down speed
G-------------------------|-----------------------|
D-----9-------9---7-9-----|-----9-------9---7-8-9-|
A-------------------------|-----------------------|
E-5/7---X-5/7---X-------X-|-5/7---X-5/7---X-------|

G-------------------------|-----------------------|
D-----9-------9---7-9-----|-----9-------9---7-8-9-|
A-------------------------|-----------------------|
E-5/7---X-5/7---X-------X-|-5/7---X-5/7---X-------|
Pour finir ce cours, rien de tel qu'un riff funky. Faîtes attention, le slide se joue très rapidement, de plus vous allez travailler vos sauts de cordes mais plus rapidement que d'habitude. Ready? Go !!!!! :o)

0 Commentaires : réagissez !

1 2 3 4 5
0 notes
Aucun commentaire !

En Live

Remitobass vient tout juste de rejoindre la communauté Slappyto. Bienvenue ! il y a 10 heures
Papihendrix vient tout juste de rejoindre la communauté Slappyto. Bienvenue ! il y a 3 jours
Services vient tout juste de rejoindre la communauté Slappyto. Bienvenue ! il y a 1 semaine
Haga187 vient tout juste de rejoindre la communauté Slappyto. Bienvenue ! il y a 1 semaine
Aline vient tout juste de rejoindre la communauté Slappyto. Bienvenue ! il y a 1 semaine
Spa53 vient tout juste de rejoindre la communauté Slappyto. Bienvenue ! il y a 3 semaines