ConnexionConnexionInscription
B E A D G
111 connectés Aller à Sweepyto Guitare

Red Hot Chili Peppers - Buckle down

Publié par le
02/12/2007
29839 vues
Avancé 3
Vitesse NormaleNormal speed Vitesse RalentieSlow down speed
G-------------------------------|
D-------------------------------|
A---7-----5-----4-----5---5H7---|
E-0---0-0---0-0---0-0---0-----0-|
T P T T P T T P T T P T P T

G-------------------------------|
D-------------------------------|
A---7-----5-----4-----5---5H7---|
E-0---0-0---0-0---0-0---0-----0-|
T P T T P T T P T T P T P T

G-------------------------------|
D-------------------------------|
A---7-----5-----4-----5---5H7---|
E-0---0-0---0-0---0-0---0-----0-|
T P T T P T T P T T P T P T

G-------------------------------|
D----5-----5-----5-----5-----5--|
A-------------------------------|
E-0-----X-----X-----X-----X-----|
T P T P T P T P T P
Un plan certes typique mais coriace. En effet, il est rare de voir des tirés en Slap sur la corde de La (quoique...) en plus c'est rapide. Personnellement, je pense pas que vous allez rester scotché pendant 15 jours sur ce plan. Ca devrait couler tout seul au bout de quelques essais. On peut noter toute fois que c'est encore votre pauvre petit pouce qui va déguster :oP

A typish plan but not so easy. Indeed, it's not so common to see [tirés?] on the A, and it's fast !! You may not be scotch during a eternity on this plan, you must clear it on fisrt try. There is something which don't change : you thumb is going to die !!

0 Commentaires : réagissez !

1 2 3 4 5
0 notes
Aucun commentaire !

En Live

Saikodoll vient tout juste de rejoindre la communauté Slappyto. Bienvenue ! il y a 2 jours
Bertrand44 vient tout juste de rejoindre la communauté Slappyto. Bienvenue ! il y a 3 jours
OLIVIER59500 vient tout juste de rejoindre la communauté Slappyto. Bienvenue ! il y a 3 jours
Jazzbassfoufou vient tout juste de rejoindre la communauté Slappyto. Bienvenue ! il y a 4 jours
MrSpit a commenté le topic [Sandberg Fretless] de MrSpit il y a 4 jours