ConnexionConnexionInscription
B E A D G
118 connectés Aller à Sweepyto Guitare

Jamiroquai - Alright (couplet)

Publié par le
30/03/2006
32081 vues
Moyen 2
Vitesse NormaleNormal speed Vitesse RalentieSlow down speed
G----5---5---5---5---|--------------------|
D--------------------|---5---5---5---5----|
A--3---3---3---3---X-|------------------X-|
E--------------------|-3---3---3---3------|

G---7---7---7---7---|---------------4--|
D-------------------|---7---7---7------|
A-5---5---5---5---X-|-------------2----|
E-------------------|-5---5---5--------|

G----5---8----------|-----------------------|
D------------5---8--|----5---5---5---3-H-5--|
A--3---6------------|-----------------------|
E----------3---6----|--3---3---3---3--------|

G----7----10-----------|------------------------------|
D--------------7---10--|----7---5-H-7----3-H-5-3------|
A--5---8---------------|-------------------------6-3--|
E------------5---8-----|--5---5-------5---------------|
Avec ce morceau nous avons un excellent exercice pour travailler une des techniques les plus utilisées dans le funk, à savoir la figure "tonique / octave", entrainez vous donc à bien faire vos "sauts de cordes", c'est à dire que dans la première mesure par exemple, il vous faudra bien jouer la corde de LA puis la corde de SOL etc ... sans toucher la corde de RE pour ne pas avoir de bruits parasites. Faites bien attention aux transitions entre deux mesures car il y a une note morte qui aide au balancement du rythme tous les 4 temps ( à chaque mesure ). Bon et bien maintenant faites bien balancer tout çà sans oublier les hammers, réduisez le rythme au départ et augmentez progressivement, .... bon groove ;-)

0 Commentaires : réagissez !

1 2 3 4 5
0 notes
Aucun commentaire !

En Live

RomBass91 a commenté le topic [Vend Carvin USA 6 Cordes] de Rif-Raf il y a 22 heures
Lowje a commenté le topic [besoin de renseignements zoom b3] de domds11 il y a 1 jour
Didoug vient tout juste de rejoindre la communauté Slappyto. Bienvenue ! il y a 2 jours
Hugo0901 vient tout juste de rejoindre la communauté Slappyto. Bienvenue ! il y a 2 jours
Rif-Raf vient tout juste de rejoindre la communauté Slappyto. Bienvenue ! il y a 2 jours
Ichran vient tout juste de rejoindre la communauté Slappyto. Bienvenue ! il y a 2 jours
LouisBasse vient tout juste de rejoindre la communauté Slappyto. Bienvenue ! il y a 4 jours
Kazhamania vient tout juste de rejoindre la communauté Slappyto. Bienvenue ! il y a 5 jours