ConnexionConnexionInscription
B E A D G
102 connectés Aller à Sweepyto Guitare

Jamiroquai - Alright (Pont)

Publié par le
30/03/2006
17236 vues
Moyen 2
Vitesse NormaleNormal speed Vitesse RalentieSlow down speed
G----5----8----12---8--|-----12----15----19----15--|
D----------------------|---------------------------|
A--3---6----10----6----|--10----13----17----13-----|
E----------------------|---------------------------|

G----7---10-----------|-----------------------------|
D-------------7---10--|------------3-h-5-3----------|
A--5---8--------------|--------------------6-3---3--|
E-----------5---8-----|--5-5-5-5-5-------------6----|
Ici nous avons à faire au pont de ce morceau, toujours avec la technique "tonique / octave", suivez les conseils donnés dans l'autre exercice basé sur ce même morceau et appliquez vous bien sur la dernière mesure, ce n'est pas si simple à placer, il vous faut faire des notes très brèves pour obtenir ce résultat, ... Je vous vois déjà placer ce groove en concert ! effet garanti :-)

0 Commentaires : réagissez !

1 2 3 4 5
1 note
Notes pour Alright (Pont) - Jamiroquai - Cours de basse vidéo | Slappyto : 5/5 sur 1 note
Aucun commentaire !

En Live

Stub vient tout juste de rejoindre la communauté Slappyto. Bienvenue ! il y a 1 jour
KaKemono et wire ont commenté le topic [basse acoustique réelle différence ???] de oliv'bass il y a 2 jours
FIblues vient tout juste de rejoindre la communauté Slappyto. Bienvenue ! il y a 2 jours
Angel a voté pour le message de Wario il y a 6 jours
Tommo59 a commenté le topic [Vends Noguera Expression + 4c 950€] de Tommo59 il y a 1 semaine
Steph83136 vient tout juste de rejoindre la communauté Slappyto. Bienvenue ! il y a 1 semaine
Jmeposito vient tout juste de rejoindre la communauté Slappyto. Bienvenue ! il y a 1 semaine