ConnexionConnexionInscription
B E A D G
152 connectés Aller à Sweepyto Guitare

Jethro Tull

#31
16/06/2007 17:53:40
Darkshine
Sinon puisqu'on parle de bourree :

Lien du média


 Excellent ce Jack Black !
0
0
#32
16/06/2007 19:12:04
Oué, si vous avez pas vu le film je vous conseille de le voir!
0
0
#33
04/01/2012 23:09:30
déterrage !

salut,

en cherchant une tab' de Bourée, je tombe sur ça:
G|-----------------------------------5--------------------|
D|---7-------7--------------------7----------7--5---------|
A|-----5--8-----8--7--8--5--7--8--------8-7-------8--5----|
E|--------------------------------------------------------|


ça ne serait pas plus logique/pratique de jouer comme ça ?
G|---2-------2--------------------2--5-------2--0---------|
D|-----0--3-----3--2--3--0--2--3--------3-2-------3--0----|
A|--------------------------------------------------------|
E|--------------------------------------------------------|


Par ailleurs, les seules tabs dispos sont au format texte (le bouzin me dit que, pour les tabs au format GP, le détenteur des droits a bloqué l'accès à sa ressource).
Si quelqu'un l'a en format exploitable par Tuxguitar, je suis preneur.
(sinon,ben je retranscrirai )

merci !
0
0
#34
05/01/2012 00:59:13
salut
joli déterrage en effet
je l'ai en gp....tous les instrus,le solo basse et tout et tout....
laisse moi une adresse mail en MP et je te l'envoie. 
0
0

En Live

Avamak vient tout juste de rejoindre la communauté Slappyto. Bienvenue ! il y a 1 jour
Fissur79 vient tout juste de rejoindre la communauté Slappyto. Bienvenue ! il y a 1 jour
Franchement, Wario, grobass, bassman59 et Angel ont commenté le topic [Micros.] de Franchement il y a 2 jours
Philbass02 vient tout juste de rejoindre la communauté Slappyto. Bienvenue ! il y a 5 jours
Fredbasse50 vient tout juste de rejoindre la communauté Slappyto. Bienvenue ! il y a 6 jours
Guitare66 vient tout juste de rejoindre la communauté Slappyto. Bienvenue ! il y a 1 semaine
Yous vient tout juste de rejoindre la communauté Slappyto. Bienvenue ! il y a 1 semaine