ConnexionConnexionInscription
B E A D G
157 connectés Aller à Sweepyto Guitare

The Whispers - And The Beat Goes On [ Artiste ]

Publié par le
07/08/2011
14517 vues
Moyen 4
http://www.youtube.com/watch?v=slldMEPvUqA
    
        

Title: And The Beat Goes On
Artist: The Whispers
Tempo = 113
Electric Bass

Legend
L - tied note
x - dead note
h - hammer on/pull off
b - bend
s - slide
~ - vibrato
g - ghost note
> - accentuated note
t - trill
M - palm mute
. - staccato
P - popping (bass)
S - slapping (bass)
+ - tapping
W - wide vibrato
< - fade in
w - whammy bar
= - tremolo picking
v - brush up
^ - brush down
V - pick stroke up
n - pick stroke down

INTRO :
G |-----------------------------2----------------------|
D |-----------------------2--4-----4-----------4-------|
A |--2--------------2--5-------------------------------|
E |-----------------------------------------------0----|


----------------------------------------------------|
--------------------------------------5.------------|
--------------------------------------------0-------|
--2--------2L-2-----3L----3--------3----------------|


-----------------------------2----------------------|
-----------------------2--4-----4-----------4-------|
--2--------------2--5-------------------------------|
-----------------------------------------------0----|


----------------------------------------------------|
-----------------------------------5----------------|
--------------------------------------------0-------|
--2--------2L-2-----3L----3-----3--------3----------|


-----------------------------2----------------------|
-----------------------2--4-----4-----------4-------|
--2--------------2--5-------------------------------|
-----------------------------------------------0----|


----------------------------------------------------|
-----------------------------------5----------------|
--------------------------------------------0-------|
--2--------2L-2-----3L----3-----3--------3----------|


-----------------------------2----------------------|
-----------------------2--4-----4-----------4-------|
--2--------------2--5-------------------------------|
-----------------------------------------------0----|


----------------------------------------------------|
----------------------------------------------------|
--------------------------------------------0-------|
--2--------2L-2-----3L----3--------3-----3----------|

REFRAIN :
-----------------------------2----------------------|
-----------------------2--4-----4-----------4-------|
--2--------------2--5-------------------------------|
-----------------------------------------------0----|


----------------------------------------------------|
-----------------------------------5----------------|
--------------------------------------------0-------|
--2--------2L-2-----3L----3-----3--------3----------|


-----------------------------2----------------------|
-----------------------2--4-----4-----------4-------|
--2--------------2--5-------------------------------|
-----------------------------------------------0----|


----------------------------------------------------|
--------------------------------5.----5-------------|
----------------------------------------------------|
--2--------2L-2-----3L----3-------------------------|

COUPLET :
--------------------4-------------------------------|
-----------------------0L-0-----2.------------------|
--2.-------------2----------------------------------|
----------------------------------------------------|


-----------------4-----4----------------------------|
--2.----------------2-------------------------------|
----------------------------------------------------|
--------------------------0.----0.----2.----2.------|

PONT :
----------------------------------------------------|
----------------------------------------------------|
-----------------------------------5-----5h-7-------|
--0-----------------x--0--0-------------------------|


----------------------------------------------------|
----------------------------------------------------|
-----------------------------------5-----5h-7-------|
--0-----------------x--0--0-------------------------|


----------------------------------------------------|----------------||
----------------------------------------------------|----------------||
-----------------------------------5-----5h-7-------|----------------||
--0-----------------x--0--0-------------------------|--0.-0.-2.-2.---||

    
    

4 Commentaires

1 2 3 4 5
3 notes
Notes pour And The Beat Goes On Basse Tab - (The Whispers) | Slappyto : 5/5 sur 3 notes
#4
15/09/2011 22:19:12

 

Retirer
panda95150

Quel type d'effet est utilisé pour avoir ce son si typique au disco ?

 Je sais pas trop, soit c'est une pedale synth, soit c'est carrément un synthetiseur

 

0
0
#3
15/09/2011 22:07:10

Quel type d'effet est utilisé pour avoir ce son si typique au disco ?

0
0
#2
07/08/2011 12:18:43

 

Retirer
PitchKucks

COUPLET :
--------------------4-------------------------------|
-----------------------0L-0-----2.------------------|
--2.-------------2----------------------------------|
----------------------------------------------------|


-----------------4-----4----------------------------|
--2.----------------2-----2.----2.------------------|
----------------------------------------------------|
--------------------------------------0.----0.------|

 

 Correction je précise, mieux vaut tard que jamais.

 

Les 4 dernieres notes (les 4 mis) sont a jouer en croches staccato mais a la reprise, jouez le si qui suit 1/4 de temps avant le temps pour le groove. Je sais pas si c'est clair mais ca doit etre audible sur le lien.

 

0
0
#1
07/08/2011 12:18:11

COUPLET :
--------------------4-------------------------------|
-----------------------0L-0-----2.------------------|
--2.-------------2----------------------------------|
----------------------------------------------------|


-----------------4-----4----------------------------|
--2.----------------2-----2.----2.------------------|
----------------------------------------------------|
--------------------------------------0.----0.------|

0
0

En Live

Glimmerkajal vient tout juste de rejoindre la communauté Slappyto. Bienvenue ! il y a 2 jours
Wario a commenté le topic [videothèque des sons] de mr gone il y a 1 semaine
Lebollos59 vient tout juste de rejoindre la communauté Slappyto. Bienvenue ! il y a 1 semaine
GregRock vient tout juste de rejoindre la communauté Slappyto. Bienvenue ! il y a 1 semaine
Chris927 vient tout juste de rejoindre la communauté Slappyto. Bienvenue ! il y a 2 semaines
Greeshma vient tout juste de rejoindre la communauté Slappyto. Bienvenue ! il y a 2 semaines
Ludo ZEFISH vient tout juste de rejoindre la communauté Slappyto. Bienvenue ! il y a 2 semaines
Nicobass1793 vient tout juste de rejoindre la communauté Slappyto. Bienvenue ! il y a 2 semaines
Indonesiae vient tout juste de rejoindre la communauté Slappyto. Bienvenue ! il y a 2 semaines