ConnexionConnexionInscription
B E A D G
156 connectés Aller à Sweepyto Guitare

Raphael Saadiq - Movin down the line [ Artiste ]

Publié par le
26/08/2011
3267 vues
Moyen 4
http://www.youtube.com/watch?v=uh2-RJnDGgQ&ob=a...
    
        

Movin' down the line                                                                     
Raphael Saadiq




     C#m
      |--3-|         |3|  |--3--|     |--3-|         |3|  |--3--|   
G||----------6-----------4--------|----------6-----------4--------|
D||-------------------6-----6-----|-------------------6-----6-----|
A||--4----4--------------------6--|--4----4--------------------6--|
E||-------------------------------|-------------------------------|


     F#m
     |--3-|         |3|  |--3--|     |--3-|         |3|  |--3--|    
G||-------------------------------|-------------------------------|
D||----------4-----------4--2-----|----------4-----------------2--|
A||-------------------4--------4--|----------------------2--4-----|
E||--2----2-----------------------|--2----2-----------2-----------|


      B7 
     |--3-|         |3|  |--3--|     |--3-|         |3|  |--3--|   
G||----------4-----------2--------|----------4--------------------|
D||-------------------4-----4-----|-------------------------2--4--|
A||--2----2--------------------4--|--2----2--------------4--------|
E||-------------------------------|-------------------2-----------|



     F#m 
     |--3-|         |3|  |--3--|     |--3-|         |3|  |--3--|      
G||-------------------------------|-------------------------------|
D||----------4-----------2--4-----|----------4--------------------|
A||-------------------4--------4--|----------------------1--2--3--|
E||--2----2-----------------------|--2----2-----------2-----------|

Ca tourne en boucle en variant à l'infini
    
    

0 Commentaires : réagissez !

1 2 3 4 5
1 note
Notes pour Movin Down The Line Basse Tab - (Raphael Saadiq) | Slappyto : 3/5 sur 1 note
Aucun commentaire !

En Live

Wario a commenté le topic [videothèque des sons] de mr gone il y a 4 jours
Lebollos59 vient tout juste de rejoindre la communauté Slappyto. Bienvenue ! il y a 5 jours
GregRock vient tout juste de rejoindre la communauté Slappyto. Bienvenue ! il y a 6 jours
Chris927 vient tout juste de rejoindre la communauté Slappyto. Bienvenue ! il y a 1 semaine
Greeshma vient tout juste de rejoindre la communauté Slappyto. Bienvenue ! il y a 1 semaine
Ludo ZEFISH vient tout juste de rejoindre la communauté Slappyto. Bienvenue ! il y a 1 semaine
Nicobass1793 vient tout juste de rejoindre la communauté Slappyto. Bienvenue ! il y a 1 semaine
Indonesiae vient tout juste de rejoindre la communauté Slappyto. Bienvenue ! il y a 1 semaine
Grandbill a commenté la tablature de Coup_de_pelle il y a 1 semaine