ConnexionConnexionInscription
B E A D G
154 connectés Aller à Sweepyto Guitare

Tomahawk - Honeymoon [ Artiste ]

Publié par le
26/08/2011
3296 vues
Débutant 1
http://www.youtube.com/watch?v=ZlRjfgVxaEQ
    
        

Tomahawk
Honey Moon                                                           

Riff principal, en cm7, joué de différentes manières

                     version1                                   
 
G||---------------------------------------------------------------|
D||------------------------------------------------------------1--|
A||--3-------3-------1--1-------------3-------3-------1-----1-----|
E||------------------------------------------------------3--------|


                     version 2                                   
 
G||----------------------------------------------------------------|
D||-------------------------------------------------------------3--|
A||--3-------3-------1--1--------------3-------3-------1--1--1-----|
E||----------------------------------------------------------------|


                     version 3                                                  
          H        H        H         
G||----------------------------------------------------------------|
D||----------------------------------------------------------------|
A||--3-------3-------1--1--------------3-------3-------1--1--1--1--|
E||----------------------------------------------------------------|


Break

        F        G#       F           G#       F        G#          F#                                      
G||-----------------------------|-----------------------------|--------------------------------------|
D||-----------------------------|-----------------------------|--------------------------------------|
A||--8-----------------8--------|-----------8-----------------|--------------------------------------|
E||-----------4-----------------|--4-----------------4--------|--2--2--2--2--2--2--2--2--2--2--2--2--|

    
    

0 Commentaires : réagissez !

1 2 3 4 5
4 notes
Notes pour Honeymoon Basse Tab - (Tomahawk) | Slappyto : 4/5 sur 4 notes
Aucun commentaire !

En Live

Wario a commenté le topic [Je cherche une guitare] de yinethm il y a 7 heures
Alain34 vient tout juste de rejoindre la communauté Slappyto. Bienvenue ! il y a 10 heures
Lologal06 vient tout juste de rejoindre la communauté Slappyto. Bienvenue ! il y a 2 jours
Yinethm vient tout juste de rejoindre la communauté Slappyto. Bienvenue ! il y a 2 jours
Chirvasc vient tout juste de rejoindre la communauté Slappyto. Bienvenue ! il y a 2 jours
Chassity vient tout juste de rejoindre la communauté Slappyto. Bienvenue ! il y a 2 jours
Mariofioretti1 a commenté le topic [Fender Victor Bailey] de azertyop il y a 2 jours