ConnexionConnexionInscription
B E A D G
157 connectés Aller à Sweepyto Guitare

Indochine - L'aventurier [ Artiste ]

Publié par le
26/08/2011
20682 vues
Débutant 1
http://www.youtube.com/watch?v=Il1S4WP6DlY
    
        

G-----|-----|-----|-----|-----|-----|-----|-----|-----|-----|-----|-----|
D-----|-----|-----|-----|-----|-----|-----|-----|-----|-----|-----|-----|
A-----|-----|--7--|-----|--2--|-----|--4--|-----|-----|-----|--7--|--7--|
E--4--|-----|-----|-----|-----|-----|-----|-----|--4--|--4--|-----|-----|

G -----|-----|--------------------|
D -----|-----|--------------------|
A --2--|--2--|--4-----------------|
E -----|-----|--------------------|

Couplet
G -----------------|-----------------|-----------------|----------------|
D -----------------|-----------------|-----------------|--------------|
A -----------------|-----------------|-2-2-2-2-2-2-2-2-|-4-4-4-4-4-4-4-4-|
E -4-4-4-4-4-4-4-4-|-0-0-0-0-0-0-0-0-|-----------------|-----------------|

Interlude
G --------------|--------------|--------------|--------------|
D --------------|--------------|--------------|-----------------|
A --------------|--2--2--4--4--|--------------|--2--2--4--4--|
E --4--4--0--0--|--------------|--4--4--0--0--|-----------------|

Refrain
G ----------------------|-------------|------------|----------|----|
D ----------------------|-------------|--------------|-------------|----|
A ----------------------|-------------|--------------|-------------|----|
E -10-10-10-10-10-10-10-|-5-5-5-5-5-7-|-8-8-8-8-10-8-|-3-3-3-3-3-5-|--4~-|

Dernière note
G ---------
D ---------
A ---10~---
E ---------

    
    

2 Commentaires

1 2 3 4 5
3 notes
Notes pour L'aventurier Basse Tab - (Indochine) | Slappyto : 1/5 sur 3 notes
#2
16/10/2011 20:48:31
ok pour ça je les trouver sur un autre site merçi de ta reponse que la basse çoit avec toi papiendrix ????
0
0
#1
16/10/2011 14:57:41
Il y a problème sur le refrain, je suis pas sur que ce soit ca et pour l'intro, au tout début la note "s'étant" sur 2 temps.
0
0

En Live

Mushaloni a commenté le topic [Besoin d'un bricoleur !] de Mushaloni il y a 3 heures
Manyak et Wario ont commenté le topic [Photos de vos basses] de lucas il y a 1 jour