ConnexionConnexionInscription
B E A D G
121 connectés Aller à Sweepyto Guitare

Vanessa Paradis - Junior suite [ Artiste ]

Publié par le
22/02/2012
2856 vues
Débutant 2
    
        

Junior Suite
Vanessa Paradis
Une nuit à Versailles


Intro
	Dm
G|---------------|-----------------|-----------|-----------|-----------|-----------|
D|--12---12--12--|-12---12--12-----|-----------|-----------|-----------|-----------|
A|---------------|-------------12S-|-5---5--5--|-5---5--5--|-5---5--5--|-5---5--5--|
E|---------------|-----------------|-----------|-----------|-----------|-----------|


Couplet 1
      Dm                                  Gm               Bbm dim        Dm                    
G|----------|----------|----------------|--------------|--------------| |-------------|
D|----------|----------|----------------|--------------|--8--8--7---7-| |-------------|
A|-5--5--5--|-5--5--5--|--5--5--5--8----|--10--10--10--|--------------| |--5---5--5---|
E|----------|----------|----------------|--------------|--------------| |-------------|


répéter le couplet	----------------------------------- et 2ème fin	|-------------|----|
									|-------------|----|
									|--5--5-5---5-|--5-|
									|-------------|----|


Refrain 1
     Dm                              C                   F              Bbm dim               
G|----------------|---------------|----------------|-----------------|-------------------|
D|-------------7--|---------------|----------------|-----------------|------7--5---------|
A|--5--5--10------|--5---5--5---0-|--3--3--3----3--|--8----0--3---8--|----------------8--|
E|----------------|---------------|----------------|-----------------|--6----------------|

     Gm               A       Em                                                                           
|-----7----------|------------------|------------------|---------------|--------|
|---------8---5--|--7---10-------5--|--9----9--7--8----|---------------|--------|
|--7-------------|----------7-------|------------------|--8----1----1--|--------|
|----------------|------------------|------------------|---------------|--6-----|



Couplet 2
    Dm                                             Gm                     Bbm dim               
G|----7--7-----|--------7--7---|----------------|----------------------|-----------------|
D|-------------|---------------|----------------|----------------------|-----------------|
A|--5----------|--5------------|--5-----------8-|--10----10--10----10--|--8-----8--7----7|
E|-------------|---------------|----------------|----------------------|-----------------|

  Dm               Dm                                Gm                    
|-------7--7----|----------------|-----------------|------------7-----|------------------|
|---------------|----------------|------------5----|--7------7-------7|--5------5-------5|
|--5------------|--5---5--7---7--|--8------8-------|------------------|------------5-----|
|---------------|----------------|-----------------|------------------|------------------|

  Bbm dim                 Dm                                                                                  

      
|-------------------|---------7--7----|-----------7-------|
|--8-------8--7-----|-----------------|--------7----------|
|------------------7|--5--------------|--5--8-------------|
|-------------------|-----------------|-------------------|



Refrain 2
     Dm                                C                   F                  Bbm dim               
G|---------------|------------------|-------------------|------------------|-------------------|
D|------------7--|------------7-----|-------------------|------------------|--8-------7--5-----|
A|--5---5--10----|--5------5-------5|--3------3--3S----7|--8------0-------8|----------------8--|
E|---------------|------------------|-------------------|------------8-----|-------------------|

   Gm                 A       Em                                      
|------------------|-------------------|-------7----------|-------------------|
|------------------|----------------5--|--9-------7--8----|-------------------|
|--7----7----------|-------------7-----|------------------|----8--1--1--0--3--|
|------------6----3|--5S------8--------|------------------|-------------------|



Violon
    Dm                               C                  F                 Bbm dim               
G|---------------|----------------|------5--5--------|-----------------|-----------------|
D|---------------|----------7-----|------------5-----|-------7--10----7|--8-----7--5-----|
A|--5------------|--5----8-------8|--3-------------3S|--8--------------|--------------8--|
E|------5--3----3|----------------|------------------|-----------------|-----------------|

  Gm               A      Em                                                                           
|----------------|-----------------|------7----------|-----------------|-------|--------|
|----------------|--------------5--|--9------7--8----|-----------------|-------|--------|
|--7--7----------|-----------7-----|-----------------|------8S----1----|-------|--------|
|----------6----3|--5-----8--------|-----------------|-----------------|-------|--------|

   Dm
|-----------------|--------------------|-----------------|---------------|---------------|
|--12---12--12----|--12---12--12-------|-----------------|---------------|---------------|
|-----------------|-----------------12-|--5------5--5----|--5---5--5----5|--5------------|
|-----------------|--------------------|-----------------|---------------|---------------|

    
    

0 Commentaires : réagissez !

1 2 3 4 5
0 notes
Aucun commentaire !

En Live

BouBou37 a commenté le topic [Club des Aria pro II =D] de darkkimhari il y a 5 jours
Abgezehr vient tout juste de rejoindre la communauté Slappyto. Bienvenue ! il y a 6 jours
Roberti1 vient tout juste de rejoindre la communauté Slappyto. Bienvenue ! il y a 1 semaine
Clemtvnn vient tout juste de rejoindre la communauté Slappyto. Bienvenue ! il y a 1 semaine
Dacris vient tout juste de rejoindre la communauté Slappyto. Bienvenue ! il y a 2 semaines
Silvianajune vient tout juste de rejoindre la communauté Slappyto. Bienvenue ! il y a 2 semaines
Sumoparis vient tout juste de rejoindre la communauté Slappyto. Bienvenue ! il y a 2 semaines
Roomicien vient tout juste de rejoindre la communauté Slappyto. Bienvenue ! il y a 2 semaines
IMilanek vient tout juste de rejoindre la communauté Slappyto. Bienvenue ! il y a 2 semaines
Sylvaiw vient tout juste de rejoindre la communauté Slappyto. Bienvenue ! il y a 3 semaines