ConnexionConnexionInscription
B E A D G
110 connectés Aller à Sweepyto Guitare

Dub Incorporation - Décor [ Artiste ]

Publié par le
22/06/2012
3630 vues
Débutant 4
http://www.youtube.com/watch?v=eN5T5EXxEDg
    
        

Légende :  
* = laisser sonner 
h = hammer-on 

Intro : 
G|----------------|----------------|----------------|----------------| 
D|53------53------|----------------|----------------|----------------| 
A|----------------|5*--------------|----------3-3-3-|--------3-5-5-5-| 
E|----------------|----------------|--------3-------|----------------| 


Refrain : x2 (sauf x3 pour le premier refrain) 
G|----------------|----------------|----------------|----------------| 
D|--------5-5-5-5-|3---3-3---------|--------5-5-5-5-|3-----3---------| 
A|----------------|--------5*------|----------------|--------5*------| 
E|3---3-----------|----------------|3---3-----------|----------------| 

G|----------------|----------------|----------------|----------------| 
D|----------------|----------------|----------------|----------------| 
A|--------5-5-5*--|3*--------3h5-3*|----------3-3-3-|--------3-5-5-5-| 
E|3-----3---------|----------------|--------3-------|----------------| 



Couplet :  
G|----------------|----------------|----------------|----------------| 
D|----------3---3-|----------------|----------3---3-|----------------| 
A|--------5---5---|5---5---3-5-3-5-|--------5---5---|5---5---3-5-3-5-| 
E|3---3-----------|----------------|3---3-----------|----------------| 

G|----------------|----------------|----------------|----------------| 
D|--------5-3-5---|----------------|--------5-3-5---|----------------| 
A|----------------|5-3-5*----------|----------------|5-3-5*----------| 
E|3---3-----------|----------------|3---3-----------|----------------| 


La deuxième moitié du solo de guitare : 
G|----------------|----------------|----------------|----------------| 
D|--------5-5-5---|3---3-3---------|--------5-5-5---|3---------------| 
A|--------------3-|--------5*------|--------------3-|--------3h5-3*--| 
E|3---3-----------|----------------|3---3-----------|----------------| 

G|----------------|----------------| 
D|----------------|----------------| 
A|3---------------|3-------5-------| 
E|-------3-3-3----|----------------| 

G|----------------|----------------|----------------|----------------| 
D|--------5-5-5---|3---3-3---------|--------5-5-5---|3-----3---------| 
A|--------------3-|--------5*------|--------------3-|--------5*------| 
E|3---3-----------|----------------|3---3-----------|----------------| 

G|----------------|----------------|--------5-3-----|----------3-5*--| 
D|----------------|3*--------------|------------5*--|--------5-------| 
A|--------3*----3-|--------3h5-3*--|----------------|3*--------------| 
E|3*--------------|----------------|3---------------|----------------| 


Outro: x3 
G|----------------|----------------|----------------|----------------| 
D|--------5-5-5-5-|3---3-3---------|--------5-5-5-5-|3---3-3-5*------| 
A|----------------|--------5*------|----------------|----------------| 
E|3---3-----------|----------------|3---3-----------|----------------| 

G|----------------|----------------|----------------|----------------| 
D|--------5-5-5-5-|3---3-3---------|----------------|----------------| 
A|----------------|--------5*------|----------3-3-3-|--------3-5-5-5-| 
E|3---3-----------|----------------|--------3-------|----------------| 

Voilà voilà. Bonne vibe à vous :)
    
    

3 Commentaires

1 2 3 4 5
3 notes
Notes pour Décor Basse Tab - (Dub Incorporation) | Slappyto : 5/5 sur 3 notes
#3
24/06/2012 18:34:40

Merci bien les gars pour vos commentaire ça me fait grave plaisir   

Un gros Big up a vous deux  !

0
0
#2
23/06/2012 14:23:49
Super cool sa fait plaisir de voire des tabs de basse de  dub/reggae.
Well done, sympa la transcription en connaissant le taf que sa demande suivant le niveau de chacun.
" I 'n I "
dub inside and good vibes !!!!
Musicalement
NuDub
0
+1
#1
23/06/2012 09:27:21

Merci à toi  

0
+1

En Live

Glimmerkajal vient tout juste de rejoindre la communauté Slappyto. Bienvenue ! il y a 2 jours
Wario a commenté le topic [videothèque des sons] de mr gone il y a 1 semaine
Lebollos59 vient tout juste de rejoindre la communauté Slappyto. Bienvenue ! il y a 1 semaine
GregRock vient tout juste de rejoindre la communauté Slappyto. Bienvenue ! il y a 1 semaine
Chris927 vient tout juste de rejoindre la communauté Slappyto. Bienvenue ! il y a 2 semaines
Greeshma vient tout juste de rejoindre la communauté Slappyto. Bienvenue ! il y a 2 semaines
Ludo ZEFISH vient tout juste de rejoindre la communauté Slappyto. Bienvenue ! il y a 2 semaines
Nicobass1793 vient tout juste de rejoindre la communauté Slappyto. Bienvenue ! il y a 2 semaines
Indonesiae vient tout juste de rejoindre la communauté Slappyto. Bienvenue ! il y a 2 semaines