ConnexionConnexionInscription
B E A D G
146 connectés Aller à Sweepyto Guitare

The Meters - Cissy Strut [ Artiste ]

Publié par le
08/07/2012
4312 vues
Débutant 1
http://www.youtube.com/watch?v=4_iC0MyIykM
    
        

G---5-3------------------------------|
D-------5----------------------5-----|   x4
A---------6--3-----1--0--3---3---3---|
E---------------1h3----------------3-|



G---5-3-5-3-5-3----5-3-5-3-----|
D--------------------------5---| x4
A----------------------------3-|
E------------------------------|



G---5-3------------------------------|
D-------5----------------------5-----|   x4
A---------6--3-----1--0--3---3---3---|
E---------------1h3----------------3-|



G---5-3-5-3-5-3----5-3-5-3-----|
D--------------------------5---| x4
A----------------------------3-|
E------------------------------|




solo (ceci est une interprétation ce n'est pas exact a 100pour100)


G------------------|
D------5-5----5----|  x8
A----3------3---3--|
E-----------------3|



G---5-3------------------------------|
D-------5----------------------5-----|   x4
A---------6--3-----1--0--3---3---3---|
E---------------1h3----------------3-|


G---5-3-5-3-5-3----5-3-5-3-----|
D--------------------------5---| x4
A----------------------------3-|
E------------------------------|

G---5-3------------------------------|
D-------5----------------------5-----|   x4
A---------6--3-----1--0--3---3---3---|
E---------------1h3----------------3-|

    
    

0 Commentaires : réagissez !

1 2 3 4 5
1 note
Notes pour Cissy Strut Basse Tab - (The Meters ) | Slappyto : 3/5 sur 1 note
Aucun commentaire !

En Live

Cell a commenté le topic ["recherche" Digitech bass synth wah] de Cell il y a 3 heures
Cell et yvesson ont commenté le topic [Le Topic du Freepost 7] de Vikie il y a 3 heures
Cell a commenté le topic ["recherche" Digitech bass synth wah] de Cell il y a 3 heures
Yvesson a commenté le topic [Amateurs de photographie, bon-jour/soir !] de cha0s-the0ry il y a 16 heures
Yvesson, sam et YannGGP ont commenté le topic [La mort de Slappyto?] de kurt il y a 16 heures
Glimmerkajal vient tout juste de rejoindre la communauté Slappyto. Bienvenue ! il y a 3 jours
Wario a commenté le topic [videothèque des sons] de mr gone il y a 1 semaine
Lebollos59 vient tout juste de rejoindre la communauté Slappyto. Bienvenue ! il y a 1 semaine
GregRock vient tout juste de rejoindre la communauté Slappyto. Bienvenue ! il y a 1 semaine
Chris927 vient tout juste de rejoindre la communauté Slappyto. Bienvenue ! il y a 2 semaines