ConnexionConnexionInscription
B E A D G
149 connectés Aller à Sweepyto Guitare

Franz ferdinand - Take Me Out [ Artiste ]

Publié par le
16/07/2012
8599 vues
Débutant 3
http://www.youtube.com/watch?v=GhCXAiNz9Jo
    
        

*********************************
* Franz Ferdinand : Take Me Out *
*********************************

mesure = 4/4, tempo = 143, subdivision (-) = croche
suggestion de réglages :
    micro : 50% manche / 50% chevalet
    EQ = 50% bass / 50% mid / 50% treble

Intro :
                                     |: 4x                              :|
G|99999999|99999999|99999999|99999999|--------|77777777|----444-|99999999|--------|99999999|--------|--------|
D|--------|--------|--------|--------|77777777|--------|5555----|--------|55557777|--------|55557777|--------|
A|--------|--------|--------|--------|--------|--------|--------|--------|--------|--------|--------|77777777|
E|--------|--------|--------|--------|--------|--------|--------|--------|--------|--------|--------|--------|

                                      ralentir
G|--------|--------|--------|--------|--------|--------|--------|--------|--------|--------|
D|555-555-|--------|333-333-|--------|--------|--------|--------|--------|--------|--------|
A|--------|555-555-|--------|333-333-|777-777-|777-777-|7-7-7-7-|7-7-7-7-|7-7-7-7-|7-7-7-7-|
E|--------|--------|--------|--------|--------|--------|--------|--------|--------|--------|

mesure = 4/4, tempo = 105, subdivision (-) = double-croche

Intro 2 :
 |: 2x                                                              :|
G|----------------|----------------|----------------|----------------|
D|-------------5--|-------------5--|----------------|----------------|
A|7-+-7-+-7-+-7---|7-+-7-+-7-+-7---|----------------|-------------5--|
E|----------------|----------------|5-+-5-+-5-+-56--|7-+-7-+-7-+-7---|

Couplet :
 |: 3x                                                              :|
G|----------------|----------------|----------------|----------------|
D|-------------5--|-------------5--|----------------|----------------|
A|7-+-7-+-7-+-7---|7-+-7-+-7-+-7---|----------------|-------------5--|
E|----------------|----------------|5-+-5-+-5-+-56--|7-+-7-+-7-+-7---|

Couplet 2 :
 |: 2x                                                              :|
G|----------------|----------------|----------------|----------------|----------------|----------------|
D|-------------5--|-------------5--|----------------|----------------|----------------|----------------|
A|7-+-7-+-7-+-7---|7-+-7-+-7-+-7---|----------------|-------------5--|7-+-7-+-7-+-7-+-|7-+-7-+-7-+-7-+-|
E|----------------|----------------|5-+-5-+-5-+-56--|7-+-7-+-7-+-7---|----------------|----------------|

Refrain :
 |: 4x                            :|
G|----------------|----------------|
D|7-7-5-5-4-4-----|--------==------|
A|------------7-5-|3---3---34--4---|
E|----------------|----------------|

Pont :
G|----------------|----------------|----------------|----------------|
D|-------------5--|-------------5--|----------------|----------------|
A|7-+-7-+-7-+-7---|7-+-7-+-7-+-7---|----------------|-------------5--|
E|----------------|----------------|5-+-5-+-5-+-56--|7-+-7-+-7-+-7---|

Couplet 3 :
 |: 3x                                                              :|
G|----------------|----------------|----------------|----------------|
D|-------------5--|-------------5--|----------------|----------------|
A|7-+-7-+-7-+-7---|7-+-7-+-7-+-7---|----------------|-------------5--|
E|----------------|----------------|5-+-5-+-5-+-56--|7-+-7-+-7-+-7---|

G|----------------|----------------|----------------|----------------|
D|-------------5--|-------------5--|----------------|----------------|
A|7-+-7-+-7-+-7---|7-+-7-+-7-+-7---|----------------|----------------|
E|----------------|----------------|5-+-5-+-5-+-56--|7-+-------------|

Pont 2 :
G|----------------|----------------|----------------|----------------|----------------|----------------|
D|-------------5--|-------------5--|----------------|----------------|----------------|----------------|
A|7-+-7-+-7-+-7---|7-+-7-+-7-+-7---|----------------|-------------5--|7-+-7-+-7-+-7-+-|7-+-7-+-7-+-7-+-|
E|----------------|----------------|5-+-5-+-5-+-56--|7-+-7-+-7-+-7---|----------------|----------------|

Refrain

Finale :
G|----------------|----------------|----------------|----------------|----------------|
D|----------------|----------------|----------------|----------------|----------------|
A|7-+-7-+-7-+-7-+-|7-+-7-+-7-+-7-+-|7-+-7-+-7-+-7-+-|7---------------|----------------|
E|----------------|----------------|----------------|----------------|----------------|

=========================================================================================================================
Légende : + = étouffer la corde (stopper le son)
          === = glissé sans jouer les notes de passage
          |: Nx :| = répéter N fois le passage entre |: et :|
=========================================================================================================================

Visitez http://www.ilovetabs.com pour d'autres tablatures "+R" pour guitare basse.

    
    

0 Commentaires : réagissez !

1 2 3 4 5
2 notes
Notes pour Take Me Out Basse Tab - (Franz Ferdinand) | Slappyto : 4/5 sur 2 notes
Aucun commentaire !

En Live

Wario a commenté le topic [videothèque des sons] de mr gone il y a 2 jours
Lebollos59 vient tout juste de rejoindre la communauté Slappyto. Bienvenue ! il y a 3 jours
GregRock vient tout juste de rejoindre la communauté Slappyto. Bienvenue ! il y a 3 jours
Chris927 vient tout juste de rejoindre la communauté Slappyto. Bienvenue ! il y a 1 semaine
Greeshma vient tout juste de rejoindre la communauté Slappyto. Bienvenue ! il y a 1 semaine
Ludo ZEFISH vient tout juste de rejoindre la communauté Slappyto. Bienvenue ! il y a 1 semaine
Nicobass1793 vient tout juste de rejoindre la communauté Slappyto. Bienvenue ! il y a 1 semaine
Indonesiae vient tout juste de rejoindre la communauté Slappyto. Bienvenue ! il y a 1 semaine
Grandbill a commenté la tablature de Coup_de_pelle il y a 1 semaine