ConnexionConnexionInscription
B E A D G
144 connectés Aller à Sweepyto Guitare

Junior Senior - Move Your Feet [ Artiste ]

Publié par le
02/11/2012
4825 vues
Débutant 1
http://www.youtube.com/watch?v=SPlQpGeTbIE
    
        

Refrain :

G |--------------------------|---------------------------|
D |-----------9-9------------|---------7-7---------------|
A |--------5-----------------|---------------------------|
E |--7\----------------7--6--|-5----8--------5-5-5----6--|


Break :

G |--------------------------|---------------------------|
D |--------------------------|---------------------------|
A |--------------------------|-------------------12\-x---|
E |------5---------5---------|------5--------5-----------|


Couplet :

G |---------------------------|--------------------------|
D |---------------------------|--------------------------|
A |--5--------5--7--------7---|--------------7-----6-----|
E |---------------------------|--5--------5--------------|

    
    

0 Commentaires : réagissez !

1 2 3 4 5
1 note
Notes pour Move Your Feet Basse Tab - (Junior Senior) | Slappyto : 5/5 sur 1 note
Aucun commentaire !

En Live

Wario a commenté le topic [videothèque des sons] de mr gone il y a 2 jours
Lebollos59 vient tout juste de rejoindre la communauté Slappyto. Bienvenue ! il y a 3 jours
GregRock vient tout juste de rejoindre la communauté Slappyto. Bienvenue ! il y a 3 jours
Chris927 vient tout juste de rejoindre la communauté Slappyto. Bienvenue ! il y a 1 semaine
Greeshma vient tout juste de rejoindre la communauté Slappyto. Bienvenue ! il y a 1 semaine
Ludo ZEFISH vient tout juste de rejoindre la communauté Slappyto. Bienvenue ! il y a 1 semaine
Nicobass1793 vient tout juste de rejoindre la communauté Slappyto. Bienvenue ! il y a 1 semaine
Indonesiae vient tout juste de rejoindre la communauté Slappyto. Bienvenue ! il y a 1 semaine
Grandbill a commenté la tablature de Coup_de_pelle il y a 1 semaine