ConnexionConnexionInscription
B E A D G
151 connectés Aller à Sweepyto Guitare

Rancid - Lock step and gone

Publié par le
31/03/2006
10414 vues
Moyen 3
Vitesse NormaleNormal speed Vitesse RalentieSlow down speed
1er pont:

G------------------------6-6-4--------------------------|
D----------2---2-4-6-----------6-5-4--2-----------------|
A--4---4-4---4-------4------------------4-2-------------|
E-------------------------------------------------------|
^ v ^ v ^ v ^ v ^ ^ v ^ v ^ v ^ v ^

2ème pont:

G-------------------------6-6-4-------------------------|
D-------444--3-4-5-6---6--------6-5-4-------------------|
A--4-4--------------------------------2-----------------|
E-------------------------------------------------------|
^ ^ v^v ^ v ^ v ^ ^ v ^ v ^ v ^
Voilà les 2 petits ponts de ce morceau. Attention, il va vous falloir une main droite autonome :) Le truc, c'est que comme il va falloir pas mal se concentrer sur les mouvements rapides de la main gauche, ça aide beaucoup si la main droite fait son boulot toute seule :) Donc entrainez-vous à passer les successions rapides toutes seules, histoire que vous preniez le coup de main avec le médiator, et le reste devrait aller tout seul.

0 Commentaires : réagissez !

1 2 3 4 5
0 notes
Aucun commentaire !

En Live

Golmout80 vient tout juste de rejoindre la communauté Slappyto. Bienvenue ! il y a 10 heures
Skydrover a commenté le topic [30 W tout lampes, suffisant ?] de skydrover il y a 11 heures
Skydrover a commenté le topic [30 W tout lampes, suffisant ?] de skydrover il y a 12 heures