ConnexionConnexionInscription
B E A D G
166 connectés Aller à Sweepyto Guitare

Rancid - Adina

Publié par le
31/03/2006
26831 vues
Moyen 3
Vitesse NormaleNormal speed Vitesse RalentieSlow down speed
[intro]

G-------------------------------------------------------|
D-------------------------------------------------------|
A-----------6--68-86------------------------------------|
E--8-88888----------------------------------------------|
^ ^v^v^ ^ ^v ^v

(4 fois)

G-------------------------------------------------------|
D-------------------------------------------------------|
A--10--10-10-10-10-10---9-9-8-8-7-----------------------|
E-------------------------------------------------------|
^ ^ v ^ v ^ ^ ^ v v ^

(3 fois)

G-------------------------------------------------------|
D-------------------------------------------------------|
A--10----10-(x14)---------------------------------------|
E-------------------------------------------------------|
^ ^v (alterné)


[couplet]

(toute cette partie se fait en
allers-retours normaux)

G-------------------------------------------------------|
D--10-9-8-7-------------7-8-9-10-9-8-7------------------|
A-----------10-9-8-9-10---------------------------------|
E-------------------------------------------------------|

G-------------------------------------------------------|
D--10-9-8-7---------------------------------------------|
A-----------10-9-8-7-8-7----7---7-8-9-------------------|
E------------------------10---8-------------------------|

G-------------------------------------------------------|
D-------------------------------------------------------|
A--10--10-10-10-10-10---9-9-8-8-7------(la ligne x3)----|
E-------------------------------------------------------|
Premier morceau du premier CD de Rancid :) Attention, l'intro de ce morceau est bien typique du "mouvement de balancier". Donc vous l'aurez deviné, essayez de garder un mouvement de balancier constant avec l'avant-bras et la main droite :) Il ne faut pas systématiquement jouer les notes un coup dans un sens, un coup dans l'autre... En effet votre main va marquer tous les allers-retours, mais certains mouvements se font "à vide" (sans toucher la corde). Reperez-vous grâce aux indications sous la tablature (^=coup en descendant, v=coup en remontant) pour voir comment attaquer les cordes. Avec un peu d'entrainement, vous verrez que le système de balancier vient tout naturellement.

0 Commentaires : réagissez !

1 2 3 4 5
0 notes
Aucun commentaire !

En Live

Kyhr et Cell ont commenté le topic [La mort de Slappyto?] de kurt il y a 9 heures
Kyhr, Cell et Malicia ont commenté le topic [Le Topic du Freepost 7] de Vikie il y a 1 semaine
Cell et Poppy ont voté pour le message de Poppyto il y a 1 mois
Cell a voté pour le message de MasterFailure il y a 1 mois
Cell a voté pour le message de grobass il y a 1 mois
Cell a commenté le topic [une chope s'il vous plait !] de Adrien21 il y a 1 mois