ConnexionConnexionInscription
B E A D G
141 connectés Aller à Sweepyto Guitare

Red Hot Chili Peppers - Sexy Mexican Maid

Publié par le
01/12/2007
18682 vues
Moyen 3
Vitesse NormaleNormal speed Vitesse RalentieSlow down speed
G |----------------------|----------------------| 
D |-----------5h6--------|---------5-7-5--------|
A |--------5------07-5---|-----5h7-------7------|
E |-0---5h7-----------7-0|-5--------------5-----|

G |----------------------|----------------------|
D |-----------5h6--------|--------5-7-5---5-----|
A |--------5------07-5---|-----5-7-----7-0-7-5-7|
E |-0---5h7-----------7-0|-5--------------------|

G |----------------------|----------------------|
D |-----------5h6--------|---------5-7-5--------|
A |--------5------07-5---|-----5h7-------7------|
E |-0---5h7-----------7-0|-5--------------5-----|

G |----------------------|----------------------|
D |-----------5h6--------|----------------------|
A |--------5------07-5---|------44--455--5667---|
E |-0---5h7-----------7-0|-55--5----------------|
Cette chanson est tirée de l'album Mother's Milk, incontestablement un des meilleurs albums des Red Hot.  Qui ne se souvient pas du solo de guitare et du solo de saxophone qui nous ont fait vibrer  ? Cela dit, le riff principal de basse est intéressant au niveau du groove mais aussi parcequ'il se joue en syncope (v. vidéos).
Collé à la batterie, il donne une puissance monstrueuse ! En bref, à bosser pour son plaisir avec le morceau dans les oreilles à pleine puissance  !

0 Commentaires : réagissez !

1 2 3 4 5
1 note
Notes pour Sexy Mexican Maid - Red Hot Chili Peppers - Cours de basse vidéo | Slappyto : 5/5 sur 1 note
Aucun commentaire !

En Live

Golmout80 vient tout juste de rejoindre la communauté Slappyto. Bienvenue ! il y a 10 heures
Skydrover a commenté le topic [30 W tout lampes, suffisant ?] de skydrover il y a 11 heures
Skydrover a commenté le topic [30 W tout lampes, suffisant ?] de skydrover il y a 12 heures