ConnexionConnexionInscription
B E A D G
129 connectés Aller à Sweepyto Guitare

Red Hot Chili Peppers - If

Publié par le
01/12/2007
26884 vues
Avancé 1
Vitesse NormaleNormal speed Vitesse RalentieSlow down speed
G |18--------18----16--------16----|14--------16----14--------14----|               
D |--14--14----14----14--14----14--|--14--14----14----14--14----14--|
A |----0---0-----0-----0---0-----0-|----0---0-----0-----0---0-------|
E |--------------------------------|--------------------------------|

G |11--------11----13--------13----|14--------16----14--------14----|
D |--12--12----12----14--14----14--|--14--14----14----14--14----14--|
A |----12--12----12----14--14----14|----0---0-----0-----0---0-------|
E |--------------------------------|--------------------------------|

G |18----19--18----16----18--16----|14--------16----14--------14----|
D |--14--------14----14--------14--|--14--14----14----14--14----14--|
A |----0---0-----0-----0---0-----0-|----0---0-----0-----0---0-------|
E |--------------------------------|--------------------------------|

G |11--------11----13--------13----|14--------16----14--------14----|
D |--12--12----12----14--14----14--|--14--14----14----14--14----14--|
A |----12--12----12----14--14----14|----0---0-----0-----0---0-------|
E |--------------------------------|--------------------------------|
Voilà comment faire pleurer les filles avec sa basse  : un bon petit riff très doux où il faut laisser sonner toutes les cordes. La difficulté consiste ici à mémoriser et à enchaîner les accords avec un même rythme tout au long de la chanson. A commencer très doucement et accélérer ensuite pour ne pas se tromper. Le morceau est dépourvu de batterie, il faut donc vous fier à votre excellent sens du rythme pour rester dans le bon tempo, c'est aussi ça la basse .

1 Commentaire

1 2 3 4 5
5 notes
Notes pour If - Red Hot Chili Peppers - Cours de basse vidéo | Slappyto : 4/5 sur 5 notes
#1
27/04/2012 14:33:08

Le début ressemble beaucoup a Seeman!

0
0

En Live

Skydrover a commenté le topic [30 W tout lampes, suffisant ?] de skydrover il y a 11 minutes
Golmout80 vient tout juste de rejoindre la communauté Slappyto. Bienvenue ! il y a 11 heures
Skydrover a commenté le topic [30 W tout lampes, suffisant ?] de skydrover il y a 12 heures
Skydrover a commenté le topic [30 W tout lampes, suffisant ?] de skydrover il y a 12 heures