ConnexionConnexionInscription
B E A D G
188 connectés Aller à Sweepyto Guitare

Red Hot Chili Peppers - If you want me to stay

Publié par le
02/12/2007
47965 vues
Moyen 2
Vitesse NormaleNormal speed Vitesse RalentieSlow down speed
G--------------------|--------------------|
D--------------------|------------------2-|
A--------------------|--------5-3--3-3----|
E-5--5-5--5-5--5-5-4-|-3--3-3-------------|

G---------------------|----------------4-3-|-2-2---
D-3--3-3--3-3--3-3--3-|-5--5-5--5-2--2-----|-------
A---------------------|--------------------|-----0-
E---------------------|--------------------|-------
Originellement, cette chanson a été écrite par "Sly and the family stone" (un groupe mythique avec le légendaire bassiste Larry GRAHAM (inventeur du Slap...)).Ca groove du feu de Dieu, YAOUUUU !

This song was originally written by Sly and the family Stone...(mythic band the bassist of which eventually invented the Slapping technique...Legendary Larry GRAHAM!) GROOOOOOOOOOOOOOOVY BAAAAABY ! =D

0 Commentaires : réagissez !

1 2 3 4 5
0 notes
Aucun commentaire !

En Live

Kyhr et Cell ont commenté le topic [La mort de Slappyto?] de kurt il y a 3 jours
Kyhr, Cell et Malicia ont commenté le topic [Le Topic du Freepost 7] de Vikie il y a 2 semaines
Cell et Poppy ont voté pour le message de Poppyto il y a 1 mois
Cell a voté pour le message de MasterFailure il y a 1 mois
Cell a voté pour le message de grobass il y a 1 mois
Cell a commenté le topic [une chope s'il vous plait !] de Adrien21 il y a 1 mois