ConnexionConnexionInscription
B E A D G
157 connectés Aller à Sweepyto Guitare

Jamiroquai - Emergency on planet earth (couplet)

Publié par le
30/03/2006
33501 vues
Moyen 2
Vitesse NormaleNormal speed Vitesse RalentieSlow down speed
G----------------|-----------------------|-8-----------|
D----------------|-----5--------3--------|-------------|
A----------------|--------------------6--|----X--5--5--|
E--3-H-4--3-H-4--|--3-----X--1-----X-----|-------------|
T T T P T T P T T P T T T

G-------5------5-H-7---X----|--8-----------|
D---------------------------|--------------|
A--X-3-----X-5-------X---6--|--------------|
E---------------------------|-----X--4--4--|
T T P T T P T P T P T T T

G--------------------|-3---------|-------7------8------|
D-----5-------7------|-----------|---------------------|
A-----------------1--|----3-3-3--|--X-5----X-6----X----|
E--3-----X-5----X----|-----------|------------------4--|
T P T T P T T P T T T T T P T T P T T

G-----------|--------------------|-3---------|
D-6---------|-----5-------7------|-----------|
A----4-4-4--|-----------------1--|----3-3-3--|
E-----------|--3-----X-5----X----|-----------|
P T T T T P T T P T T P T T T

G------7------8----|--------------|-------|
D------------------|--------------|-------|
A--X-5---X-6----X--|-----4-----6--|-------|
E------------------|--4-----6-----|--3----|
T T P T T P T T T T T T
Voilà un bon petit riff en slap qui utilise encore la téchnique "tonique / octave", je sais je me repette mais n'oubliez pas les notes mortes et faites des tirés ( indiquez par le lettre P ) sec et précis pour bien contre balancer avec la batterie. Appliquez-vous, il n'y a pas de pièges dans ce riff tout est parfaitement sur le temps ;-) Mais pretter attention à la quatrième mesure qui est un peu plus difficile à placer, à travailler lentement pour acquerir le mouvement ;-)

1 Commentaire

1 2 3 4 5
1 note
Notes pour Emergency on planet earth (couplet) - Jamiroquai - Cours de basse vidéo | Slappyto : 5/5 sur 1 note
#1
29/06/2012 17:28:51
Je l'ajoute dans mon attirail de plans Slap !
0
0

En Live

Wario a commenté le topic [Je cherche une guitare] de yinethm il y a 7 heures
Alain34 vient tout juste de rejoindre la communauté Slappyto. Bienvenue ! il y a 10 heures
Lologal06 vient tout juste de rejoindre la communauté Slappyto. Bienvenue ! il y a 2 jours
Yinethm vient tout juste de rejoindre la communauté Slappyto. Bienvenue ! il y a 2 jours
Chirvasc vient tout juste de rejoindre la communauté Slappyto. Bienvenue ! il y a 2 jours
Chassity vient tout juste de rejoindre la communauté Slappyto. Bienvenue ! il y a 2 jours
Mariofioretti1 a commenté le topic [Fender Victor Bailey] de azertyop il y a 2 jours