ConnexionConnexionInscription
B E A D G
130 connectés Aller à Sweepyto Guitare

ben harper tabs

#1
02/11/2003 12:27:44
bon je vois deja certains qui vont ecrire :"tu peux pas trouver a l'oreille toi meme!!" ou un truc du style mais bon tanpis je demande aux autres!
est ce que qq'un aurait la tab de brown eyed blues de ben harper sur son dernier album parceque c pas mal du tout je trouve, merci!
0
0
#3
02/11/2003 12:39:31
merci beaucoup kwyb!!
0
0
#4
02/11/2003 13:43:05
tu le veux le petit passage solo de basse hein !!??
Ben, j'ai prévu de le bosser dès que je retrouve un peu de temps...
0
0
#5
02/11/2003 13:46:55
J'ai fait une ptit tab de Bronw Eyed Blue avec le solo, mais y'a qq passages qui m'échappe. Je peux t'envoyé ça si tu veux, et tu corrigera ce qui te plait pas.
0
0
#6
02/11/2003 13:50:00
t'as mon adresse
d'ailleurs, j'attends ta réponse pour les lives
0
0
#7
02/11/2003 14:00:08
Désolé Sebass, j'avais pas accès au net ces dernières semaines... Je te tiens au courant!

Pour Brown Eyed Blue, j'avais tabbé tt le morceau y'a 1 mois, mais l'outro que j'avais à peu près toute tabbée qui a disparu :-S. Faudra que je le refasse, pour le moment vlà :
( y'a deux mesures dont chuis vraiment pas sûr ds le solo c la dernière et celle où j'ai mis que j'étais pas sûr en anglais lol ).

Intro :

G---------------|--------------|--------------|--------------|
D---7-5-7-------|--7-5-7-------|--7-5-7-------|--7-5-7-------|
A---------7-5---|--------7-5---|--------7-5---|--------7-5---|
E-5-----------7-|-5----------7-|-5----------7-|-5----------7-|

Verse :

I say, if I knew... ...here
G---------------|--------------|--7-5-7-------|--7-5-7-------|
D---7-5-7-------|--7-5-7-------|--------7-5---|--------7-5---|
A---------7-5---|--------7-5---|-5----------7-|-5----------7-|
E-5-----------7-|-5----------7-|--------------|--------------|

Would mean ... alone tomorrow
G---5-3-5-------|--7-5-7-------|---------------|--------------|
D---------5-3---|--------7-5---|---7-5-7-------|--7-5-7-------|
A--3----------5-|-5----------7-|---------7-5---|--------7-5---|
E---------------|--------------|-5-----------7-|-5----------7-|

I... all of my
G---------------|--------------|--7-5-7-------|--7-5-7-------|
D---7-5-7-------|--7-5-7-------|--------7-5---|--------7-5---|
A---------7-5---|--------7-5---|-5----------7-|-5----------7-|
E-5-----------7-|-5----------7-|--------------|--------------|

For a moment with you
G---5-3-5-------|--7-5-7-------|---------------|--------------|
D---------5-3---|--------7-5---|---7-5-7-------|--7-5-7-------|
A--3----------5-|-5----------7-|---------7-5---|--------7-5---|
E---------------|--------------|-5-----------7-|-5----------7-|

Chorus :

Brown Eyed Blues
G---------------|---------------|---7-5-7-------|-------------|
D---7-5-7-------|---5-3-5-------|---------7-5---|--7-5-7------|
A---------7-5---|---------5-3---|-5-----------7-|--------7-5--|-
E-5-----------7-|-3-----------5-|---------------|-5---------7-|

You can find.. another fool
G---------------|---------------|---7-5-7-------|-------------|
D---7-5-7-------|---5-3-5-------|---------7-5---|--7-5-7------|
A---------7-5---|---------5-3---|-5-----------7-|--------7-5--|-
E-5-----------7-|-3-----------5-|---------------|-5---------7-|

Say yeah, yeah, yeah
G---5-3-5-------|---7-5-7-------|---------------|-------------|
D---------5-3---|---------7-5---|---7-5-7-------|-don't play--|
A-3-----------5-|-5-----------7-|---------7-5---|-only guitar-|
E---------------|---------------|-5-----------7-|-------------|


Verse 2 ( same as verse 1 )

Chorus 2 ( same as chorus 1 )

Bass Solo ( with enveloppe filter pedal )
[not sure for this bar]
G-----------------|------------9h7-|-----------------|---9p7------------|
D-----999-888-777-|-----7-7-7------|-----999-888-777-|------9p7-7p5-----|
A-----------------|----------------|-----------------|--------------7p5-|
E-5-7-------------|5-7-x-x-x--x---x|5-7--------------|5-7---------------|
TPTPTP TP T

G-----------------|------------9h7-|-------------------------|
D-----999-888-777-|-----7-7-7------|------7-7-7--x-x-x-x-x-x-|
A-----------------|----------------|-------------------------|
E-5-7-------------|5-7-x-x-x--x---x|5-7-x-x-x---0-1-2-3-4-5--|
TPTPTP TP T TPTPTP TPTPTPTPTPTP

G--------------------|--------------------|-----------------|
D--------999-888-777-|--------999-888-777-|-----999-888-777-|
A--------------------|--------------------|-----------------|
E-55-5-7-------------|-55-5-7-------------|-5-7-------------|

G--------10-11-12-13-14----|--------------------------|
D--------------------------|--------------------------|
A-------x--x--x--x--x------|-only guitar during 4 bar-|
E-55-5---------------------|--------------------------|
T PT PT PT PT P

Bridge ( enveloppe filter pedal on ):

G-------7h9h7-|--------------|-------9-7-9h7-|-------7-9h7-|
D-------------|-------9--7h9-|---------------|-------------|
A-------------|--------------|---------------|-------------|
E-----x-------|-5-6-7--------|-5-6-7---------|-5-6-7-------|
T P P P P P P

G-------------|
D--------9--8-|
A-------------|
E-5-6-7-------|

Verse 3 ( same as verse 1 and 2 )
0
0
#8
02/11/2003 14:06:52
Un ptit copier dans le bloc note s'impose...
0
0

En Live

Fiwa62824 vient tout juste de rejoindre la communauté Slappyto. Bienvenue ! il y a 15 heures
Yo_run a commenté le dossier de alper il y a 1 jour
Yo_run a voté pour le dossier de alper il y a 1 jour
Yo_run vient tout juste de rejoindre la communauté Slappyto. Bienvenue ! il y a 1 jour
Gcs79460 vient tout juste de rejoindre la communauté Slappyto. Bienvenue ! il y a 4 jours
Bad+ vient tout juste de rejoindre la communauté Slappyto. Bienvenue ! il y a 5 jours
Dudu67460 vient tout juste de rejoindre la communauté Slappyto. Bienvenue ! il y a 6 jours
Friday1 vient tout juste de rejoindre la communauté Slappyto. Bienvenue ! il y a 6 jours