ConnexionConnexionInscription
B E A D G
114 connectés Aller à Sweepyto Guitare

question pour poppyto

#1
23/12/2002 16:21:06
tu avait poster un message sur totalbass pour mettre 2 micros en serie sur un jazz bass (g une une jazz bass)
pourrais tu me passer un shema ou me donner des conseils
merci a toi Ô dieu de la basse lol

max
0
0
#2
23/12/2002 20:13:46
pas de pb je t'envoi ca :o)
0
0
#3
01/01/2003 16:15:07
scuse de ne pa t'avoir repondu plus tot mai jété en vacances.
Voila mon adresse:maxlaresta@hotmail.com

max
0
0
#4
01/01/2003 16:27:37
c bon je lai recu
merci beaucoup et bonne annee

max
0
0
#5
01/01/2003 19:18:31
Essaye de faire un schéma du cablage original avant de tout changer, on sait jamais...et bonne année à toi aussi :o)
0
0
#6
01/01/2003 20:02:56
au fait poppyto la chanson get on top c:
[------------------------------]
[------------------------------]
[-----19-19-17-19--------------]
[00-0---------------X-3-0-3-0-3]

[------------------------------]
[------------------------------]
[-----19-19-17-19--------------]
[00-0---------------X-5-6-5-0-3]

[------------------------------]
[------------------------------]
[-----19-19-17-19--------------]
[00-0---------------X-3-0-3-0-3]

[------------------------------]
[-------------------7-7-7-8-8-9]
[-----19-19-17-19--------------]
[00-0--------------------------]
c sa en gros
(G la partition originale)
je peu pa t'envoyer de vidéo ma camera marche plus par contre si tu veu encore qq rectifications dis le moi

max
0
0
#7
01/01/2003 20:48:18
Oki c'est pitêtre la partoche originale mais je trouve que ça colle pas des masses...je préfère ma transcription :oP mais si tu peu m'envoyer un mp3 je veux bien, ça sera plus facile de juger si c'est ça ou pas.

Stef
0
0

En Live

Boon Fil vient tout juste de rejoindre la communauté Slappyto. Bienvenue ! il y a 20 heures
Yashodhakrshn vient tout juste de rejoindre la communauté Slappyto. Bienvenue ! il y a 1 jour
Deved vient tout juste de rejoindre la communauté Slappyto. Bienvenue ! il y a 3 jours
Quelqu'un vient tout juste de rejoindre la communauté Slappyto. Bienvenue ! il y a 6 jours
Riep vient tout juste de rejoindre la communauté Slappyto. Bienvenue ! il y a 1 semaine
Ichmul vient tout juste de rejoindre la communauté Slappyto. Bienvenue ! il y a 1 semaine
Gwenbasse vient tout juste de rejoindre la communauté Slappyto. Bienvenue ! il y a 1 semaine
Goldergol vient tout juste de rejoindre la communauté Slappyto. Bienvenue ! il y a 2 semaines