ConnexionConnexionInscription
B E A D G
140 connectés Aller à Sweepyto Guitare

besoin de votre aide communauté fidele

#1
03/05/2005 12:39:36
Bonjour tout le monde =) .voila mon probleme , s'il ya bien une musique des red hot que j'adore c'est bien fight like a brave(pour memoire "the upflit mofo party plan" , probleme : ya pas de partitions de basse exacte du morcal (morceaux au singulier =] ) , si vous aviez une partition exacte du morceaux moi je suis preneur , "moi" j'ai trouvé ca d'oreille :
riff principal
G |-------------------------------------
D |---------7--------5--------7---------
A |-------------------------------------
E |---5-5-------5-5------5-5------------

G |-------------------------------------
D |---------7--------5------------------
A |-------------------------------3-----
E |---5-5-------5-5------5-5--3---------

J'ai aussi une video à l'appuie (si je peux heberger ma video quelque part )
de ce riff ainsi que la partie solo de basse juste avant celui de guitare .
Autre question : maitenant c'est pour "out in LA" , dans le solo de guitare si vous ecoutez bien (je dis pas que vous etes pas attentif a la basse dans les morceaux hein...) ya une petite variante de la basse , en meme temps si qqn a reussi a dechifrer le solo de guitare ce serait plutot sympa =] .
Merci a vous
0
0
#2
03/05/2005 14:15:52
qui t'as dit qu'on était une communauté fidèle?
0
0
#3
03/05/2005 15:12:31
2

Très interessant de répondre ca ...
0
0
#4
03/05/2005 15:36:29
bah d'un utre coté fallait bien que quelqu'un la sorte et en plus je pouvait pas l'aider
0
0
#5
03/05/2005 15:55:16
4

Entre dire des conneries qui peuvent être mal interpretées ou se taire il vaut mieux choisir la deuxième option
0
0
#6
03/05/2005 17:47:16
Battez vous
0
0
#7
03/05/2005 17:56:23
Je veux bien quelque chose à l'appui car je connais pas ce morceau .
Apparement ça a l'air pas mal
0
0
#8
03/05/2005 18:08:32
je precise que c'est du slap pour fight like a brave , sinon on essaie de pas faire trop deriver le sujet...
0
0
#9
03/05/2005 18:54:36
jarrive a me planter en transcrivant... :

G |-------------------------------------
D |---------7--------5--------7---------
A |-------------------------------------
E |---5-5-------5-5------5-5------------

G |-------------------------------------
D |---------7--------5------------------
A |-------------------------------5-----
E |---5-5-------5-5------5-5--3---------

jme suis planté dans la 2eme ligne pour les attentifs . Vous connaissez pas un site pour heberger des videos alors ? Poppyto si t'es dans le coin , m'a pas l'air tres fidele la communauté
0
0
#10
03/05/2005 20:08:11
Perso je la joue comme ça



3 fois

G |------------------5-----6---------
D |---------7------------------------
A |---0-0-------0-0----0-0-----------
E |---------------------------------

1 fois

G |------------------5---------------
D |---------7------------------------
A |---0-0-------0-0------------5------
E |-----------------------3----------



good luck
Stef
0
0
#11
03/05/2005 23:59:20
What can we add when the master is mad!
0
0
#12
04/05/2005 12:12:44
on ne peut rien dire quand le maitre passe...
Merci
Et sinon pour le solo de basse juste avant celui de guitare , tu joues quoi ?
0
0

En Live

Abgezehr vient tout juste de rejoindre la communauté Slappyto. Bienvenue ! il y a 19 heures
Roberti1 vient tout juste de rejoindre la communauté Slappyto. Bienvenue ! il y a 2 jours
Clemtvnn vient tout juste de rejoindre la communauté Slappyto. Bienvenue ! il y a 4 jours
Dacris vient tout juste de rejoindre la communauté Slappyto. Bienvenue ! il y a 1 semaine
Silvianajune vient tout juste de rejoindre la communauté Slappyto. Bienvenue ! il y a 1 semaine
Sumoparis vient tout juste de rejoindre la communauté Slappyto. Bienvenue ! il y a 1 semaine
Roomicien vient tout juste de rejoindre la communauté Slappyto. Bienvenue ! il y a 1 semaine
IMilanek vient tout juste de rejoindre la communauté Slappyto. Bienvenue ! il y a 2 semaines
Sylvaiw vient tout juste de rejoindre la communauté Slappyto. Bienvenue ! il y a 2 semaines
Jigesi00 vient tout juste de rejoindre la communauté Slappyto. Bienvenue ! il y a 2 semaines