ConnexionConnexionInscription
B E A D G
126 connectés Aller à Sweepyto Guitare

Vidéo New Order

#1
27/04/2005 20:54:06
New Order - Crystal

http://media.neworderonline.com/video/special/5... TYPE="video/x-ms-wmv" WIDTH="320" HEIGHT="240" AUTOSTART="0" PLUGINSPAGE=" http://microsoft.com/windows/windowsmedia/download/default.asp" SHOWSTATUSBAR="1" SHOWDISPLAY="0" SHOWCONTROLS="1" > Lien du média


je précise que le bassiste délire vers la fin, c'est çà le bon truc
0
0
#2
27/04/2005 20:56:23
elle met du temps à charger car elle dure 6 minutes et 50 secondes

et désolé pour mêtre trompé de rubrique
0
0
#3
27/04/2005 20:56:27
elle met du temps à charger car elle dure 6 minutes et 50 secondes

et désolé pour mêtre trompé de rubrique
0
0
#4
27/04/2005 21:20:20
Bien sympa !

je connaissai pas le groupe, merci de me l'avoir faire découvert !
0
0
#5
27/04/2005 21:20:41
petit le delire, petit :-S

sonon vous pouvez m'en dire plus sur new order; j'aime beaucoup joy division mais je connais bcp moins ce groupe... alors?
0
0
#6
27/04/2005 22:07:26
c un petit délire mais je trouve çà sympa...

5

très bonne question
0
0
#7
28/04/2005 13:11:02
Marche pas
0
0
#8
29/04/2005 21:13:22
bon ça remarche, le lien pour la télécharger:
http://media.neworderonline.com/video/special/5...
0
0
#9
30/04/2005 10:46:34
yen a dautre hi hi
0
0
#10
30/04/2005 13:44:32
marche pas. Sinon j'ai le clip, c'est le meme ou c'est un live?
0
0
#11
04/05/2005 11:23:51
crystal


New Order
bass 2 (solo)




G||-------|-------||------|------|------|------|------|------|------|------|
D||*------|------*||------|------|------|------|------|------|------|------|
A||*------|------*||------|------|------|------|------|------|------|------|
E||-------|-------||------|------|------|------|------|------|------|------|


3x
------|------||-------|------|------|-------||-------|------|------|-------||
------|------||*------|------|------|------*||*------|------|------|------*||
------|------||*------|------|------|------*||*------|------|------|------*||
------|------||-------|------|------|-------||-------|------|------|-------||



-------|------|------|-------||--8--11----8--11----13--11--|
*------|------|------|------*||----------------------------|
*------|------|------|------*||----------------------------|
-------|------|------|-------||----------------------------|



----13--13--13----13--13------|------11--------11----13--11--|
--------------------------13--|--13--------13----------------|
------------------------------|------------------------------|
------------------------------|------------------------------|



----13--13--13----13--13--13--|--16--15----13--11----13--15--|
------------------------------|------------------------------|
------------------------------|------------------------------|
------------------------------|------------------------------|



----18--18--18----18--18--16--|--16--15----13--11----13--15--|
------------------------------|------------------------------|
------------------------------|------------------------------|
------------------------------|------------------------------|



----20--20--20----20--20------|------11--------11----13--11--|
--------------------------13--|--13--------13----------------|
------------------------------|------------------------------|
------------------------------|------------------------------|



----13--13--13----13--13------|------11--------11----13--11--|
--------------------------13--|--13--------13----------------|
------------------------------|------------------------------|
------------------------------|------------------------------|



----13--13--13----13--13--13--|--16--15----13--11----13--15--|
------------------------------|------------------------------|
------------------------------|------------------------------|
------------------------------|------------------------------|



----18--18--18----18--18--8--|--8--11----8--11----13--11--|
-----------------------------|----------------------------|
-----------------------------|----------------------------|
-----------------------------|----------------------------|



----13--13--13----13--13----|------|------|------|------|------|------|------|
----------------------------|------|------|------|------|------|------|------|
----------------------------|------|------|------|------|------|------|------|
----------------------------|------|------|------|------|------|------|------|



------||-------|------|------|-------||--8--11----8--11----13--11--|
------||*------|------|------|------*||----------------------------|
------||*------|------|------|------*||----------------------------|
------||-------|------|------|-------||----------------------------|



----13--13--13----13--13------|------11--------11----13--11--|
--------------------------13--|--13--------13----------------|
------------------------------|------------------------------|
------------------------------|------------------------------|



----13--13--13----13--13--13--|--16--15----13--11----13--15--|
------------------------------|------------------------------|
------------------------------|------------------------------|
------------------------------|------------------------------|



----18--18--18----18--18--16--|--16--15----13--11----13--15--|
------------------------------|------------------------------|
------------------------------|------------------------------|
------------------------------|------------------------------|



----20--20--20----20--20--8--|--8--11----8--11----13--11--|
-----------------------------|----------------------------|
-----------------------------|----------------------------|
-----------------------------|----------------------------|



----13--13--13----13--13------|------11--------11----13--11--|
--------------------------13--|--13--------13----------------|
------------------------------|------------------------------|
------------------------------|------------------------------|



----13--13--13----13--13--13--|--16--15----13--11----13--15--|
------------------------------|------------------------------|
------------------------------|------------------------------|
------------------------------|------------------------------|



----18--18--18----18--18--8--|--8--11----8--11----13--11--|
-----------------------------|----------------------------|
-----------------------------|----------------------------|
-----------------------------|----------------------------|



----13--13--13----------|----|----|----|----|----|----|----|----|----|----|----|
------------------------|----|----|----|----|----|----|----|----|----|----|----|
------------------------|----|----|----|----|----|----|----|----|----|----|----|
------------------------|----|----|----|----|----|----|----|----|----|----|----|


3x
----|----|----|----|----||-------|------|------|-------||------|------|------|
----|----|----|----|----||*------|------|------|------*||------|------|------|
----|----|----|----|----||*------|------|------|------*||------|------|------|
----|----|----|----|----||-------|------|------|-------||------|------|------|



------|------|------|------|------|------|------|------|------||
------|------|------|------|------|------|------|------|------||
------|------|------|------|------|------|------|------|------||
------|------|------|------|------|------|------|------|------||
0
0

En Live

Jmeposito vient tout juste de rejoindre la communauté Slappyto. Bienvenue ! il y a 1 jour
AlexHarris vient tout juste de rejoindre la communauté Slappyto. Bienvenue ! il y a 1 jour
Ben49000 vient tout juste de rejoindre la communauté Slappyto. Bienvenue ! il y a 3 jours
Baki13110 a commenté le topic [Achat Ken Smith Hadrien Feraud] de Baki13110 il y a 4 jours
Domds11 vient tout juste de rejoindre la communauté Slappyto. Bienvenue ! il y a 4 jours
PapaBigBass vient tout juste de rejoindre la communauté Slappyto. Bienvenue ! il y a 6 jours
BASSTHEGROOVE vient tout juste de rejoindre la communauté Slappyto. Bienvenue ! il y a 6 jours