ConnexionConnexionInscription
B E A D G
233 connectés Aller à Sweepyto Guitare

Quetion TAB Brand New Heavies

#1
25/04/2008 18:46:29
Bonsoir à tous

J'ai un p'tit problème sur une TAB de Brand New Heavies, que veux dire M8 ???
J'espère que ma question n'est pas trop conne


"This song consists of two main parts namely verse and chorus. Although simple it is a very good song and be sure to keep the chorus octave pattern tight and strong. There is also a very simple M8. This is just a basic transcription and does not include all the fills. The notes in brackets are not always played."
0
0
#2
25/04/2008 18:52:14

M8 en phonétique, ça fait "meight"

soit : mate (qui veut dire "mec" en gros)

exemple : That was great mate !
0
0
#3
25/04/2008 18:55:20
Ben le M8 il est écrit dans la Tab aussi

Sometimes in the second bar of the chorus this is played...

G:|---6--------------||
D:|-------6----------||
A:|-4--------4-------||
E:|-----4-------4--3-||

M8
                        ~
G:|-----------------|-----------------|-----------------|
D:|-----------------|-----4/6-4-------|-----------------|
A:|-4---4---x2---2-3|-4-4-------------|-4---4---x2---2-3|
E:|-----------------|-----------------|-----------------|
           ~
G:|-----------------||
D:|-----------------||repeat
A:|-4-----------(x2)||
E:|----2--3--4------||

0
0
#4
25/04/2008 19:06:32

Ben je sais pas alors...
0
0
#5
25/04/2008 19:15:25
 ç'a me gonfle
0
0
#6
25/04/2008 23:59:54
C'est pas les paroles ?
Comme le dit mxou, il dit peut être ''mec''.
0
0
#7
26/04/2008 00:56:15
 Quelle chanson ?
0
0
#8
26/04/2008 15:21:59
Spend some time tab récupérée sur Bassmasta



Brand New Heavies
Spend Some Time Album: "Brother Sister"
Written By: A.Levy/A.Cheung
Bass Player: Andrew Levy
Transcription By: Simon Merrick
This song consists of two main parts namely verse and chorus.
Although simple it is a very good song and be sure to keep the chorus octave pattern tight and strong.
There is also a very simple M8.
This is just a basic transcription and does not include all the fills.
The notes in brackets are not always played.
Note: ~ indicates vibrato Slide in from 16th fret E string Verse/Intro


G:|-----------------|-----------------|-----------------|
D:|-----------------|-----------------|----------4------|
A:|-4(4)-----4------|-4-(4)------4----|----4---4---4----|
E:|-----------4-4---|-------4------4-3|-2-------------2-|

G:|-----------------||
D:|-------7--6------||repeat w/ad-lib.
A:|----7--------6---||
E:|-5--------------4||

Chorus

G:|---6---6---6-----|---6--------6----|-----------------|
D:|-----------------|-------6---------|---4---4---4-----|
A:|-4---4---4-------|-4--------4------|-----------------|
E:|--------------4--|-----4--------4--|-2---2---2----2--|

G:|-----------------||
D:|----7-------9----||repeat w/ad-lib.
A:|-----------------||
E:|-5-----5-7-----7-||

Sometimes in the second bar of the chorus this is played...
G:|---6--------------||
D:|-------6----------||
A:|-4--------4-------||
E:|-----4-------4--3-||

M8
                                  ~
G:|-----------------|-----------------|-----------------|
D:|-----------------|-----4/6-4-------|-----------------|
A:|-4---4---x2---2-3|-4-4-------------|-4---4---x2---2-3|
E:|-----------------|-----------------|-----------------| 
              ~
G:|-----------------||
D:|-----------------||repeat
A:|-4-----------(x2)||
E:|----2--3--4------||

If you have any comments or corrections just e-mail me at: mrzender69@hotmail.com
Voilou
0
0
#9
26/04/2008 15:36:35

ça a l'air de désigner le petit pont qui suit le deuxième refrain. après, moi pas connaitre le vrai sens du terme, mais ça doit pas casser des briques, c'est de l'angliche

0
0

En Live

Gwenbasse vient tout juste de rejoindre la communauté Slappyto. Bienvenue ! il y a 1 jour
Goldergol vient tout juste de rejoindre la communauté Slappyto. Bienvenue ! il y a 2 jours
Omywish1 vient tout juste de rejoindre la communauté Slappyto. Bienvenue ! il y a 5 jours
D6bel 38 vient tout juste de rejoindre la communauté Slappyto. Bienvenue ! il y a 6 jours
Jgrec vient tout juste de rejoindre la communauté Slappyto. Bienvenue ! il y a 1 semaine
Andrewhardy et martingail ont commenté le topic [Experts in SPSS Assignment Help for Students.] de kevinmiller il y a 1 semaine
Andrewhardy vient tout juste de rejoindre la communauté Slappyto. Bienvenue ! il y a 1 semaine
AdT vient tout juste de rejoindre la communauté Slappyto. Bienvenue ! il y a 1 semaine