ConnexionConnexionInscription
B E A D G
140 connectés Aller à Sweepyto Guitare

Muscle museum

#1
13/06/2006 15:42:28
salut, quelqu'un aurait la tab de muscle museum en entier et sur la meme base que celle du cours de slappyto ?
0
0
#3
13/06/2006 15:47:30
Intro:   
G:-----------------|
D:-4---4---4---4---|
A:---4---4---4---4-|
E:-----------------|


Verse:
G:-----------------|-----------------|---------------6-|-7-4-------------|
D:-4---4---4---4---|-----------------|-4---4---4---4---|-----4-------2-3-|
A:---4---4---4---4-|-4---4---4---4---|---4---4---4-----|-------5---5-----|
E:-----------------|---4---4---4---4-|-----------------|---------7-------|


Pre-Chorus:
G:-----------------|-----------------|
D:-----------------|-----------------|
A:-----------------|-----------------|
E:-2-2-2-----------|-4-4-4-----------|

G:-----------------------------------------------------|
D:-----------------------------------------------------|
A:-5555555555555555/16161616161616161616161616161616/0-|
E:-----------------------------------------------------|

Chorus:
G:-------------------|------------------------|
D:-------4--------4--|------------------------|
A:-------------------|-4-4-4--4-4--4-4-4--4-4-|
E:-2-2-2----2-2-2----|------------------------|

G:-------------------|----------------------------|
D:-------4--------4--|----------------------------|
A:-------------------|-2-2-2--2-2--2-2-2--2-------|
E:-2-2-2----2-2-2----|----------------------5-4-5-|

G:-------------------|------------------------|
D:-------4--------4--|------------------------|
A:-------------------|-4-4-4--4-4--4-4-4--4-4-|
E:-2-2-2----2-2-2----|------------------------|

G:-------------------|------------------------|
D:-------4--------4--|--------------------0-2-|
A:-------------------|-2-2-2--2-2--2-2-2------|
E:-2-2-2----2-2-2----|------------------------|


Riff1:
G:-----------------|-----------------|-----------------|-----------------|
D:-----2-------2---|-----3-------3---|-4---4---4---4---|-4---4---4---4---|
A:-----------------|-----------------|---4---4---4---4-|---4---4---4---4-|
E:-0-0---0-0-0---0-|-1-1---1-1-1---1-|-----------------|-----------------|


Bridge/End:
G:-----------------|-----------------|-----------------|------------------|
D:-----2-------2---|-----3-------3---|-4-4-4-4-2-2-2-2-|------------------|
A:-----------------|-----------------|-----------------|-5-5-5-5-5-5-5/12-|
E:-0-0---0-0-0---0-|-1-1---1-1-1---1-|-----------------|------------------|

G:-----------------|-----------------|-----------------|------------------|
D:-----2-------2---|-----3-------3---|-4-4-4-4-2-2-2-2-|------------------|
A:-----------------|-----------------|-----------------|-5-5-5-5-5-5------|
E:-0-0---0-0-0---0-|-1-1---1-1-1---1-|-----------------|-------------10\0-|

G:-----------------|-----------------|-----------------|-----------------|
D:-----------------|-----------------|-----------------|-----------------|
A:-0-0-0-0-0-0-0-0-|-----------------|---------2-2-0-4-|---------2-2-0-4-|
E:-----------------|-4-4-4-4-4-4-4-4-|-2-2-2-2---------|-2-2-2-2---------|

G:-----------------|-----------------|----------------|
D:-----------------|-----------------|----------------|
A:-------0-2-2-0---|-------0-2-2-0-4-|----------------|
E:-2-2-4---------4-|-2-2-4-----------|-2--------------|

Si sa foire c'est par ici c'est cool à jouer !!! surtout avec la disto bien réglée sur le refrain !
 
0
0
#4
13/06/2006 15:51:35
Il y a juste le  pré-refrain qui me semble faut, je pense pas que sa soit un Ré la note jouée mais un La ...
G--------------------------------------------------------------------------------------
D--------------------------------------------------------------------------------------
A---------------------------------------------1212121212121212121212121212----
E-----222------444------555555555555555--------------------------------------////
0
0
#5
13/06/2006 15:53:24

merci !!

0
0
#6
13/06/2006 15:57:41
 De rien éclate toi bien fait gaffe aussi sur la toute dernière phrase

G:-----------------|-----------------|----------------|
D:-----------------|-----------------|----------------|
A:-------0-2-2-0---|-------0-2-2-0-4-|----------------|
E:-2-2-4---------4-|-2-2-4-----------|-2--------------|

Les notes sont bonnes sauf que c'est sa > (je te le décompose)

A----------------------------------------------------
E---222-4-5-777-5-4
--222-4-5-777-5-4--2--------------


0
0
#7
13/06/2006 15:58:52
Tu as tout à fait raison R.A.Z. Très bonne correction de ta part.
J'avoue que Muscle Museum c'est de la bombe à jouer : facile et ça dépote un max
0
0
#8
13/06/2006 16:04:12
 Il y a aussi le refrain où il y a une légère erreur > (je te met la diférence en rouge)
G:-------------------|--------6-----------6---| 
D:-------4--------4--|------------------------|
A:-------------------|-4-4-4-------4-4-4------|
E:-2-2-2----2-2-2----|------------------------|

G:-------------------|-------4------------4-------|
D:-------4--------4--|----------------------------|
A:-------------------|-2-2-2-------2-2-2----------|
E:-2-2-2----2-2-2----|----------------------5-4-5-|


0
0
#9
13/06/2006 16:06:50
Quel souci du détail. Bravo R.A.Z
0
0
#10
13/06/2006 16:36:32
 De rien disons que je suis assez perfectionniste (sans non plus déconner...) et je pense qu'il faut toujours vérifier ses sources sur le net, mais bon... quand il s'agit de MUSE et Chris Wolstenholm... ... et puis je la joue tellement de foi que bon... ce qui est pas mal c'est d'écouter les variantes qu'il fait en live (si je vous promet il en fait et c'est très efficace et pas démonstratif) et de les adapter aux morceaux studio... sinon pour cette tab il y a d'autres fautes (minimes et qui empèche pas de jouer mais qu'on peut trouver tout seul, c'est surtout des fautes de rythmes...).
Sur ceux, tournées avec la chaleur qu'il fait
0
0
#11
13/06/2006 16:50:35
Mon morceau préféré ... Bon bassouillage, c'est de la bombe Muscle Museum! Toujours la premiere qu'on fait avec le groupe pour s'échauffer
0
0
#12
13/06/2006 16:51:15
Je vois que je ne suis pas seul """fan""" de MUSE  
0
0
#13
13/06/2006 16:55:48
Muse c'est le plaisir à l'état pur.
Efficacité, simplicité mais aussi technique : que demande le peuple ???
0
0
#14
13/06/2006 16:58:45
MUSE, MUSE, MUSE  !!!
Tu as entendu les nouveaux morceaux ? Va sur radioblog et tu peut en entendre d'autres que SMBH, KOC et MOP...
0
0
#15
13/06/2006 17:12:47
J'ai écouté tout l'album moi!! Et bien a part la premier que je trouve trop "Dance" les autres sont vraiment pas mal du tout !!

Je vais voir Muse en concert à Arras, vraiment hate !!
0
0

En Live

Multipvp vient tout juste de rejoindre la communauté Slappyto. Bienvenue ! il y a 1 jour
Mepeya6886 a commenté le topic [Débutant complet...] de kellos il y a 1 jour
Mepeya6886 vient tout juste de rejoindre la communauté Slappyto. Bienvenue ! il y a 1 jour
Malicia a commenté le topic [Le Topic du Freepost 7] de Vikie il y a 2 jours
Mcennis, Wario et Breakout_12 ont commenté le topic [videothèque des sons] de mr gone il y a 2 jours
Cdurand a commenté le topic [Effet grésillement] de cdurand il y a 2 jours
Mcennis vient tout juste de rejoindre la communauté Slappyto. Bienvenue ! il y a 3 jours
Liliano vient tout juste de rejoindre la communauté Slappyto. Bienvenue ! il y a 4 jours
Uwehuber a commenté le topic [SLAPPYTO sur systeme de 2024] de HumakT il y a 1 semaine