ConnexionConnexionInscription
B E A D G
126 connectés Aller à Sweepyto Guitare

Deliateurs

#1
12/06/2009 15:04:15

DELIATEURS

(A FAIRE SUR TOUT LE MANCHE BIEN ENTENDU)

 

 

Depuis le début, je trouve que l'index et le majeur sont assez faciles à faire suivre l'un l'autre.
Cependant, l'annulaire et l'auriculaire étant des doigts beaucoup moins employés par les gestes quotidiens, il me fallait un exercice qui me permette de les faire travailler un maximum.
Alors tout à l'heure j'ai pris ma Basse, et puis j'ai fais des gamme : Majeure, Chromatique, mais pas assez complexe pour le cerveau.

Donc je me suis mis à chercher et je me suis fait ceci, je trouve que c'est assez hard pour appliquer les doigts comme il le faut :
- dans le bon ordre
- être appuyé correctement sur le manche (doigts en marteau pour la Guitare, normal)
- sortir les notes correctement

- rester dans un rythme le plus régulier possible

Je laisse les débutants comme moi apprécier (ou non) ces exercices que j'adore finalement lollarge.gif


 
Evidemment, ce que je vous proposes sur le motif "1 3 2 4" peut se faire sur toutes les combinaisons.

Par exemple, en commençant par 1, on a les 6 possibilités suivantes :

1 2 3 4
1 2 4 3
1 3 2 4
1 3 4 2
1 4 2 3
1 4 3 2

Donc on a en tout 24 patterns à bosser, sur une, 2 ou 4 cordes.

 


ON COMMENCE SUR 1 CORDE A LA FOIS :


G----------------------------------------------------1-3-2-4-2-3-1--
D-----------------------------------1-3-2-4-2-3-1------------------1-3-2-4-2-3-1
A------------------1-3-2-4-2-3-1----------------------------------------------------1-3-2-4-2-3-1
E-1-3-2-4-2-3-1--------------------------------------------------------------------------------------1-3…

 

G----------------------------1-3-2-4-----------------------------
D-------------------1-3-2-4----------1-3-2-4--------------------
A----------1-3-2-4-----------------------------1-3-2-4----------
E-1-3-2-4------------------------------------------------1-3-2-4

 

G--------------------5--6--7--8-------------------------------------------------
D-----------------6----------------7-------------------------------------------
A--------------7----------------------6---------------------------------------
E-5--6--7--8----------------------------------------------------

 

 

 

 

ON CONINTUE EN ALTERNANT SUR 2 CORDES :

G-------------------------------------------3-2---1----4------------------------------------------
D----------------------3-2---1-----4----1-----4---3-2------3-2---1-----4---------------------
A---3-2---1-----4---1-----4---3-2------------------------1-----4---3-2-------3-2---1-----4-
E-1-----4---3-2----------------------------------------------------------------1-----4---3-2---
-

 

G-------------------------------3---4-----1--- 2----------------------------------
D-----------------------------1---2--------- 3--- 4-------3---4-----1--- 2-------

A---3---4-----1--- 2-----------------------------------1---2--------- 3--- 4-----
E-1---2--------- 3--- 4------------------------------------------------------------

0
0
#2
12/06/2009 15:11:05
Allez hop... Le débutant que je suis va tester ça ce soir...

Merci
0
0
#3
12/06/2009 15:14:55
 J'en rajouterai surement ;)
0
0
#4
12/06/2009 16:01:14
 C'est exactement ce genre d'exo que je cherche pour dépoussiérer les doigts avant de joué merci Silane !!
0
0
#5
12/06/2009 17:15:08
Silane38
  

DELIATEURS


ON COMMENCE SUR 1 CORDE A LA FOIS :

G----------------------------------------------------1-3-2-4-2-3-1--
D-----------------------------------1-3-2-4-2-3-1-------------------
A------------------1-3-2-4-2-3-1------------------------------------
E-1-3-2-4-2-3-1-----------------------------------------------------


Super initiative..!

NB : je ne suis pas absolument certain que le retour (le 2-3-1 après le 1-3-2-4) soit très utile.
D'ailleurs, dans les exercices suivants sur plusieurs cordes, tu l'as supprimé.
0
0
#6
12/06/2009 17:17:40
Par contre il faut bien penser à les jouer en remonant vers les graves, çà fait un bon travail pour la main droite :

G----------------------------1-3-2-4-----------------------------
D-------------------1-3-2-4----------1-3-2-4--------------------
A----------1-3-2-4-----------------------------1-3-2-4----------
E-1-3-2-4------------------------------------------------1-3-2-4
0
0
#7
12/06/2009 17:19:56
  Tient je vais tenter ça de suite. Merci

Edit : J'adore
0
0
#8
12/06/2009 17:25:23

G----------------------------------3-2-------1----4--------
D--------------------------------1-----4-------3-2--------

A---3-2------1------4--------------------------------------
E-1-----4-------3-2----------------------------------------

C'est bien, mais pourquoi sauter les cordes A - D ?
Plus complet, et avec la remontée de cordes, çà pourrait donner :

G-------------------------------------3-2---1----4----------------------------------
D--------------------3-2---1-----4-1-----4---3-2----3-2---1-----4-----------------
A---3-2---1-----4-1-----4---3-2-------------------1-----4---3-2----3-2---1-----4-
E-1-----4---3-2-----------------------------------------------------1----4---3-2---

0
0
#9
12/06/2009 17:28:59
Evidemment, ce que tu nous proposes sur le motif "1 3 2 4" peut se faire sur toutes les combinaisons. Par exemple, en commençant par 1, on a les 6 possibilités suivantes :

1 2 3 4
1 2 4 3
1 3 2 4
1 3 4 2
1 4 2 3
1 4 3 2

Donc on a en tout 24 patterns à bosser, sur une, 2 ou 4 cordes.
0
0
#10
12/06/2009 17:31:55
Silane38
  

DELIATEURS

ON COMMENCE SUR 1 CORDE A LA FOIS :
...

ENSUITE SUR 2 CORDES :

...


Et ensuite sur 4 cordes :

G-------4--------
D-----2---2------
A---3--------3---
E-1------------1- 
0
0
#11
12/06/2009 17:39:22
ca fait mal putain
0
0
#12
12/06/2009 18:00:53
scorpix74
ca fait mal putain
 +1
0
0
#13
12/06/2009 18:07:08
 Merci Silane ;)
Je tablerai à l'occasion un exemple de déliateur de mon prof : joué toutes les notes d'une gamme dans n'importe quel ordre puis mélanger les gammes, la règle étant de jouer en noir à un tempo de 240 avec une seule fois de suite la même note.
0
0
#14
12/06/2009 18:22:05
 attends je crois que j'ai lus 240 Ô_o dit moi que je me plante là
0
0
#15
12/06/2009 18:43:10
des noires à 240, c'est comme des croches à 120 ou des double-croches à 60, c'est jouable, non ? 
0
0
#16
12/06/2009 19:42:47
 Oui c'est même très jouable, c'est juste qu'il faut changer de note rapidement et donc improviser relativement un schéma sympathique ...
Après tout tu sais le tempo c'est important mais faut voir aussi la longueur de notes joué.
0
0
#17
12/06/2009 19:43:48
Ahhh, les déliators !!!! Un pti que je fais souvent avec mon prof.

G---------------1-2-1------------------------1-3-1---------------------1-4-1---------------
D----------1-2--------2-1----------------1-3------3-1--------------1-4------4-1-----------
A-----1-2-----------------2-1--------1-3--------------3-1------1-4--------------4-1-------
E-1-2--------------------------2-1-3----------------------3-1-4---------------------4-1----


G-------------2-3-2---------------------2-4-2------------------------3-4-3-----------------
D---------2-3------3-2--------------2-4-------4-2----------------3-4------4-3-------------
A-----2-3--------------3-2------2-4---------------4-2--------3-4--------------4-3---------
E-2-3----------------------3-2-4----------------------4-2-3-4---------------------4-3------

A bosser au METRONOME avec le métronome sur le 2e et le 4e temps de la mesure. C'est efficace.




Le prochain bientôt
0
0
#18
12/06/2009 19:50:17
 Strunk je comprends ta tablature par contre dsl :/

Bon ben je vais reprendre les autres idées pour refaire un truc plus complet car je comptais bien sûr augmenter le tout. Merci je bosserai ça d'ici lundi soir :)
0
0
#19
12/06/2009 19:57:25
Le déliateur en croix :
http://www.megaupload.com/?d=Q6P103MT

NB : Il faut le faire en laissant les doigts appuyés sur les cases déjà jouées et en ne bougeant que le doigt qui va jouer la note suivante. 

Question : quel site gratuit d'upload de fichier utilisez vous, qui donne un accès direct aux images ?
0
0
#20
12/06/2009 19:59:56
Ok je modifie mon premier topic !!!

0
0
#21
12/06/2009 20:14:57
Le fichier contient une image avec les notes et la tab.
Je ne trouve pas un site d'hébergement gratuit qui donne un lien direct sur les images.
0
0
#22
12/06/2009 20:16:11
 Tiens : fiable et tu perdras pas tes images :
http://servimg.com/profile.php?mode=editprofile&748754
0
0
#23
12/06/2009 20:16:47
Merki.
0
0
#24
12/06/2009 20:18:47
 De rien ça me fait plaisir de pouvoir aider. En plus je trouve ces exercices super bien pour apprendre à délier les doigts.
0
0
#25
12/06/2009 20:21:01
ServImg n'arrive pas à uploader les images que je génère depuis guitar Pro. Il met 312, fichier non uploadé. 312 doit être un code d'erreur. C'est un BMP de 200K, il devrait passer. 
0
0
#26
12/06/2009 20:23:10
Silane38
 Strunk je comprends ta tablature par contre dsl :/
 
Je crois que tu as oublié une partie de la phrase.
0
0
#27
12/06/2009 20:23:52

Un autre déliateur, au format PDF car il est un peu plus long...

http://www.megaupload.com/?d=X658GE3V

0
0
#28
12/06/2009 22:49:04
 Strunk en fait j'avais pas vu, c'est tout entrecoupé.
Réduis la taille de la police ça sera sur une seule ligne.
0
0
#29
13/06/2009 10:40:07
 Silane38, pourquoi tu poste pas tes déliateurs dans la section cours>Techniques>échauffements?
0
0
#30
13/06/2009 13:43:21
 Moi aussi je contribue, allez Hop !

G|----------------------------5-----8--
D|----------5-----8----6-7------6-7----
A|---6-7------6-7----5-----8-----------
E|-5-----8-----------------------------

celui là peut servir pour bien gérer l'alternance INDEX MAJEUR de la main droite (inverse pour les gauchers ). Permet de travailler le saut de cordes.
Le doigté sur le manche est très simple mais bon !
 Détails Main droite : I = Index, M = Majeur 
1er tour :
I M I I
M M I M
M I M M
I I M I
exactement l'inverse au 2ème tour :
M I M M
I I M I
I M I I
M M I M
0
0

En Live

Glimmerkajal vient tout juste de rejoindre la communauté Slappyto. Bienvenue ! il y a 1 heure
Wario a commenté le topic [videothèque des sons] de mr gone il y a 1 semaine
Lebollos59 vient tout juste de rejoindre la communauté Slappyto. Bienvenue ! il y a 1 semaine
GregRock vient tout juste de rejoindre la communauté Slappyto. Bienvenue ! il y a 1 semaine
Chris927 vient tout juste de rejoindre la communauté Slappyto. Bienvenue ! il y a 1 semaine
Greeshma vient tout juste de rejoindre la communauté Slappyto. Bienvenue ! il y a 1 semaine
Ludo ZEFISH vient tout juste de rejoindre la communauté Slappyto. Bienvenue ! il y a 1 semaine
Nicobass1793 vient tout juste de rejoindre la communauté Slappyto. Bienvenue ! il y a 2 semaines
Indonesiae vient tout juste de rejoindre la communauté Slappyto. Bienvenue ! il y a 2 semaines