ConnexionConnexionInscription
B E A D G
121 connectés Aller à Sweepyto Guitare

Transcription "Frankenstein" MMiller

#1
30/07/2006 00:13:45
J'ai besoin d'aide pour transcrire "Frankenstein" de Marcus Miller. J'ai su transcrire le thème mais je n'arrive pas à avoir quelque chose de convaincant pour le début du bridge (entre 24 et 34 secondes). Si quelqu'un peux m'aider, voici un lien vers le morceaux:


http://www.marcusmiller.com/media_mp3.html #



Ou alors si quelqu'un a la partition ou tablature ce serait le pied!
0
0
#2
30/07/2006 00:16:51
Oui !! Si qqun a la tab multi instru svp !! J'me mets à ses genoux !
0
0
#3
30/07/2006 00:19:21

tiens flea
0
0
#4
30/07/2006 00:28:23

oups je clic où il faut pas!...


G|----------------|----------------|----------------|----------------|
D|----------------|----------------|----------------|----------------|
A|---------------1|----------------|----------------|----------------|
E|-3-3-3-3-1-3-3--|-3-3-3-1-3------|----------------|----------------|

Pour la rythmique écoute le morceaux...

0
0
#5
30/07/2006 00:43:50
Le petit passage en slap le 1er fait

G|-------------------|----------------|----------------|----------------|
D|----------3-5-3-5--|----------------|----------------|----------------|
A|--5---3-5----------|----------------|----------------|----------------|
E|----6--------------|----------------|----------------|----------------|

Il me semble.
0
0
#6
30/07/2006 00:49:22
la fin du bridge

G|--15-15-15-15---|-12-14-15-14-12-|----------------|----------------|
D|----------------|----------------|----------------|----------------|
A|----------------|----------------|----------------|----------------|
E|----------------|----------------|----------------|----------------|

C' est répété plusieurs fois
0
0
#7
30/07/2006 00:53:26
ou alors pour plus de basse...G|----------------|----------------|----------------|----------------|
D|----------------|----------------|----------------|----------------|
A|--1--1--1--1----|----0-1-0-------|----------------|----------------|
E|----------------|--3--------3----|----------------|----------------|
0
0
#8
30/07/2006 17:13:55

     
-------------3-0-5p-3---3-L--5p-3-|--5g7--5h-7p-5s-3----3--L---------|
--2-3-4-5-L-----------5-----------|------------------5--------5------|
----------------------------------|----------------------------------|
----------------------------------|----------------------------------|


--------------------------|-----------------------------|
--------------------------|-----------------3s-5-L-5----|
-------3h--4--5--6--3--4--|--5--------------------------|
--6-----------------------|-----1--2--3--L-----------3--|


 ----------------------------|-----------------3g5-------|
----------------------------|---------------------------|
--3----3-----3-3-----3--x---|--3--1--2--3--L---------3--|
-----------3-------3------3-|---------------------------|


   
-----------------------------|------------------7h-9-L\----|
-----------------------------|-----------------------------|
--4----4-----5-5-----5-5---x-|--6--6--6--7--L-7------------|
-----------3-------3---------|-----------------------------|

tu parle

0
0
#9
30/07/2006 17:13:57

     
-------------3-0-5p-3---3-L--5p-3-|--5g7--5h-7p-5s-3----3--L---------|
--2-3-4-5-L-----------5-----------|------------------5--------5------|
----------------------------------|----------------------------------|
----------------------------------|----------------------------------|


--------------------------|-----------------------------|
--------------------------|-----------------3s-5-L-5----|
-------3h--4--5--6--3--4--|--5--------------------------|
--6-----------------------|-----1--2--3--L-----------3--|


 ----------------------------|-----------------3g5-------|
----------------------------|---------------------------|
--3----3-----3-3-----3--x---|--3--1--2--3--L---------3--|
-----------3-------3------3-|---------------------------|


   
-----------------------------|------------------7h-9-L\----|
-----------------------------|-----------------------------|
--4----4-----5-5-----5-5---x-|--6--6--6--7--L-7------------|
-----------3-------3---------|-----------------------------|

tu parle de

0
0
#10
30/07/2006 17:13:57

     
-------------3-0-5p-3---3-L--5p-3-|--5g7--5h-7p-5s-3----3--L---------|
--2-3-4-5-L-----------5-----------|------------------5--------5------|
----------------------------------|----------------------------------|
----------------------------------|----------------------------------|


--------------------------|-----------------------------|
--------------------------|-----------------3s-5-L-5----|
-------3h--4--5--6--3--4--|--5--------------------------|
--6-----------------------|-----1--2--3--L-----------3--|


 ----------------------------|-----------------3g5-------|
----------------------------|---------------------------|
--3----3-----3-3-----3--x---|--3--1--2--3--L---------3--|
-----------3-------3------3-|---------------------------|


   
-----------------------------|------------------7h-9-L\----|
-----------------------------|-----------------------------|
--4----4-----5-5-----5-5---x-|--6--6--6--7--L-7------------|
-----------3-------3---------|-----------------------------|

tu parle de ce

0
0
#11
30/07/2006 17:14:23
ce passage? (bug dsl)
0
0

En Live

JoeFoxBass38 vient tout juste de rejoindre la communauté Slappyto. Bienvenue ! il y a 15 heures
Saikodoll vient tout juste de rejoindre la communauté Slappyto. Bienvenue ! il y a 3 jours
Bertrand44 vient tout juste de rejoindre la communauté Slappyto. Bienvenue ! il y a 4 jours
OLIVIER59500 vient tout juste de rejoindre la communauté Slappyto. Bienvenue ! il y a 4 jours
Jazzbassfoufou vient tout juste de rejoindre la communauté Slappyto. Bienvenue ! il y a 5 jours
MrSpit a commenté le topic [[VENDUE] Sandberg Fretless] de MrSpit il y a 5 jours