ConnexionConnexionInscription
B E A D G
141 connectés Aller à Sweepyto Guitare

Tablature et conseils

#1
20/11/2011 12:15:43
Bonjour à tous j'aimerais savoir si quelqu'un possède la tablature du groupe Tracks (le titre est Long train running) je la cherche et j'aimerais beaucoup l'apprendre merci de votre aide.
PS : si vous avez des conseils pour jouer ce morceaux n'hésitez pas  
0
0
#2
20/11/2011 12:18:49

Long train running , c'est les Doobies Brothers .

Tracks ce n'est qu'un remix . cherche les Doobies

 

0
0
#3
20/11/2011 12:23:24
Je préfère celle de Tracks personnellement c'est pour sa.
0
0
#4
20/11/2011 14:13:32

J'ai ça mais des Doobies, après tu dois pouvoir adapter ?? Parce-que en gros il a plus de ligne de basse avec les Tracks !!

LONG TRAIN RUNNING

 

G----3-----------------------|
D--5----5--3-----3-----------|    phrase de l'entrée basse.
A------------3/5---5-3-------|
E----------------------6-----|


G------------------------|
D----------3---5-------|           intro x 3
A-----3/5----5-------| 
E---3---------------|

G------------------------|
D----------3---3-5------|       intro x 1
A------3/5---5----------|
E-----3------------------|

G------------------------|
D----------3---5-------        couplet x4
A-----3/5----5-------| 
E---3---------------|

G------------------------|
D-------------------------|     pré refrain x 2     
A---33---33--0--33--33---| 
E------3----3------3--65--|

G------------------------|
D----------3---5-------|           x2
A-----3/5----5-------| 
E---3---------------|

G---------------------------------|
D---------------------------------|       refrain
A---6------66----5--5-----55---5--|
E-----x--6----x-6-----x-6----6----|



G------------------------|
D----------3---5-------|           couplet etc..
A-----3/5----5-------| 
E---3---------------|

0
0
#5
20/11/2011 14:41:24
Merci je prend il faut que je trouve celle de Traks ><
0
0
#6
20/11/2011 17:47:54
0
0
#7
21/11/2011 06:45:54
Retirer
musikman
http://www.slappyto.net/Forum-Basse/Topic-Basse.aspx?id=31767 , fonction recherche c'est le bien...
 Je me demande même si la Tab je l'aurai pas trouvée ici ? lol

Mushaloni, avec le cours de Sébu tu as l'intro, et après avec la vidéo de David tu as le reste en plus compliqué, car le bassiste de Tracks ne fait pas tout cela, il me semble qu'il fait juste la fondamentale et l'octave en slap et ._
0
0
#8
26/11/2011 11:29:19
Merci tout le monde je vais y bosser  
0
0

En Live

Ray a commenté le topic [G&L M2500 parfait état ] de Ray il y a 4 heures
Cédric Idf vient tout juste de rejoindre la communauté Slappyto. Bienvenue ! il y a 14 heures
Vox 22 vient tout juste de rejoindre la communauté Slappyto. Bienvenue ! il y a 1 jour
Wario a commenté le topic [GL Kiloton US 890€] de Wario il y a 1 jour
Freinet vient tout juste de rejoindre la communauté Slappyto. Bienvenue ! il y a 1 jour
Serge blessing vient tout juste de rejoindre la communauté Slappyto. Bienvenue ! il y a 2 jours
Vin'z du 50 vient tout juste de rejoindre la communauté Slappyto. Bienvenue ! il y a 3 jours
Gozo et koches ont commenté le topic [vds WARWICK Corvette std MIG 600€] de gozo il y a 3 jours