ConnexionConnexionInscription
B E A D G
130 connectés Aller à Sweepyto Guitare

Comment bloquer les cordes ?

#1
20/05/2012 21:23:29


Oyé à tous,

J'ai un problème sur le morceau de Pascal Picard "Gate 22" : dans le 1er couplet, il y a un moment où sont jouées 2 cordes à vide. Le problème est qu'il faut bloquer le son à la fin des notes, mais à cet instant, les doigts ne sont plus disponibles !! Alors comment faire ?
Ci-dessous la grille du 1er couplet et les notes qui posent problème (dernière mesure de chaque ligne)

 

VERSE 1
|--------------|--------------|--------------|-----------------|
|--------------|--------------|--------------|-----------------| x1
|---4----2--4--|---------2--4-|---------2--4-|--0---4-2-----2-3|
|-----4--------|---4--4-------|---2--4-------|----0-------4----|

VERSE 1 PART 2
|---------------|---------------|---------------|-----------------|
|---------------|---------------|---------------|-----------------| x2
|4---2-4-2------|----2-4-2------|----2-4-2------|--0---4-2-----2-3|
|--4-------4-2-4|4-4-------4-2-4|2-4-------4-2-4|----0-------4----|

 

http://grimmbartdeferdock.pagesperso-orange.fr/...

 

ou ici en ZIP pour le faire tourner en boucle

http://grimmbartdeferdock.pagesperso-orange.fr/Musique/PascalePicard-Gate22_Couplet1.zip

 

Merci à tous

 

PS : j'ai pas trouvé comment utiliser le bouton "TAB" dans l'éditeur de message !!

0
0
#2
20/05/2012 21:36:23

Déjà, je dirais que les notes à problèmes sont jouées legato; bon ça saute pas forcément à l'oreille, mais je viens de le jouer et ça le fait mieux.

Donc t'as plusieurs solutions : 

- Plaquer doucement la main gauche sur les cordes après les avoir jouées (deux fois donc), c'est un mouvement rapide, délicat, et qui demande de la synchronisation. Cela dit c'est facile.

- Jouer avec le pouce sur la corde Mi

- Comment ça les doigts ne sont plus disponibles ?

Après chacun ses techniques, mais dans le cas présent ça sert à rien  

Comment ça t'as pas trouvé le bouton "tab" ? Il est dans la barre au-dessus de là où t'écris, c'est la 6ème icône en partant de la gauche  

0
0
#3
20/05/2012 21:43:58

étouffe la premiere note avec la main gauche, c'est assez simple. Dans mon cas la deuxieme serait étouffée par le pouce droit qui se repose sur la corde mi. 

0
0
#4
20/05/2012 22:00:09

étouffe la premiere note avec la main gauche, c'est assez simple. Dans mon cas la deuxieme serait étouffée par le pouce droit qui se repose sur la corde mi.

 

Effectivement, la seconde note est étoufée automatiquement !! Mais pour étoufer la première je galère ...

0
0
#5
20/05/2012 22:01:10

je viens d'éditer mon post, je t'ai dit il faut le faire avec la main gauche !

0
0
#6
20/05/2012 22:02:11

Pour le bouton "TAB", je vois bien où il est, mais c'est pour l'utiliser !!

 

Comment on fait :

 

On écrit sa tab, on la sélectionne et on appuie sur "TAB" ?

0
0
#7
20/05/2012 22:04:38

G|----------------|----------------|----------------|----------------|
D|--Ouais-c'est-ça|!---------------|----------------|----------------|
A|----------------|----------------|----------------|----------------|
E|----------------|----------------|----------------|----------------|

0
+1
#8
20/05/2012 22:55:25

VERSE 1
|--------------|--------------|--------------|-----------------|
|--------------|--------------|--------------|-----------------| x1
|---4----2--4--|---------2--4-|---------2--4-|------4-2-----2-3|
|-----4--------|---4--4-------|---2--4-------|--5-0-------4----|

VERSE 1 PART 2
|---------------|---------------|---------------|-----------------|
|---------------|---------------|---------------|-----------------| x2
|4---2-4-2------|----2-4-2------|----2-4-2------|------4-2-----2-3|
|--4-------4-2-4|4-4-------4-2-4|2-4-------4-2-4|--5-0-------4----|


Sinon tu peux essayer comme ça
0
+1
#9
20/05/2012 23:04:26
Retirer
pullover

VERSE 1
|--------------|--------------|--------------|-----------------|
|--------------|--------------|--------------|-----------------| x1
|---4----2--4--|---------2--4-|---------2--4-|------4-2-----2-3|
|-----4--------|---4--4-------|---2--4-------|--5-0-------4----|

VERSE 1 PART 2
|---------------|---------------|---------------|-----------------|
|---------------|---------------|---------------|-----------------| x2
|4---2-4-2------|----2-4-2------|----2-4-2------|------4-2-----2-3|
|--4-------4-2-4|4-4-------4-2-4|2-4-------4-2-4|--5-0-------4----|


Sinon tu peux essayer comme ça

 Ouais   j'me disais que j'avais oublié un truc dans la liste des façons de faire !

0
0
#10
21/05/2012 00:18:23
Retirer
Grimmbart

étouffe la premiere note avec la main gauche, c'est assez simple. Dans mon cas la deuxieme serait étouffée par le pouce droit qui se repose sur la corde mi.

 

Effectivement, la seconde note est étoufée automatiquement !! Mais pour étoufer la première je galère ...

 mais non c'est facile  

ton petit doigt fret la case 4, se releve pour que tu puisses jouer A (corde à vide), il te suffit de reposer le petit doigt sur la corde pour l'étouffer.

0
0
#11
21/05/2012 07:36:47

Et voilà, en plus lisible :

G|---------------|---------------|---------------|-----------------|
D|---------------|---------------|---------------|-----------------| x2
A|4---2-4-2------|----2-4-2------|----2-4-2------|------4-2-----2-3|
E|--4-------4-2-4|4-4-------4-2-4|2-4-------4-2-4|--0-0-------4----|

 

Le plus simple en effet, c'est d'étouffer la corde de MI en posant doucement le petit doigt sur la 4ème case.

0
0
#12
21/05/2012 13:54:59

Essaie comme ceci :

- première note jouée avec l'index, le majeur vient étouffer

- deuxième note "       "          "   , le pouce vient étouffer sur la corde Mi

0
0
#13
21/05/2012 14:11:57

Merci à tous, ça commence à venir !!

 

- Technique Pullover : OK.

- Technique Damuoy : encore du travail pour l'indépendance des doigts ...

 

Merci à tous

0
0

En Live

TommyStam vient tout juste de rejoindre la communauté Slappyto. Bienvenue ! il y a 1 jour
Priyanka a commenté le topic [Comment vous sentez-vous ?] de stasioo22 il y a 2 jours
Immediate1alor vient tout juste de rejoindre la communauté Slappyto. Bienvenue ! il y a 3 jours
Frank185 vient tout juste de rejoindre la communauté Slappyto. Bienvenue ! il y a 4 jours
Tomeem1 vient tout juste de rejoindre la communauté Slappyto. Bienvenue ! il y a 4 jours
Sgbs vient tout juste de rejoindre la communauté Slappyto. Bienvenue ! il y a 5 jours
Chuchi a commenté le topic [Incasol Comentarios ] de IncasolMercado il y a 5 jours
Getslimxmed vient tout juste de rejoindre la communauté Slappyto. Bienvenue ! il y a 5 jours
Angaarrestaura vient tout juste de rejoindre la communauté Slappyto. Bienvenue ! il y a 1 semaine