ConnexionConnexionInscription
B E A D G
188 connectés Aller à Sweepyto Guitare

techinque pour solo

#1
10/10/2006 13:26:43

bon voilà je vous propose un petit exercice que mon prof m'a appris et qui permet de travailler la dextérité des doigts et la rapidité (suremment que plusieurs d'entre vous connaissent déjà cette exercice)
cette technique matrisée sur toutes les positions du manche et à une vitesse relativement rapide peu vite devenir très utile en solo (cf Grahams, Pastorius...etc...)
ici c'est sur une des position de la gamme de Do majeure


G||--5--4--2-----4--2--------|--2-----------------------|
D||-----------5--------5--3--|-----5--3--2--5--3--2-----|
A||--------------------------|-----------------------5--|
E||--------------------------|--------------------------|


--------------------------|--------------------------|
--3--2--------2-----------|--------------------------|
--------5--3-----5--3--2--|--5--3--2-----3--2--------|
--------------------------|-----------5--------5--3--|


--------------------------||
--------------------------||
--2-----------------------||
-----5--3--1--5--3--1--0--||
(P.S on peut aussi travailler ça en montée)

0
0
#2
10/10/2006 13:47:19
ps: on doit travailler ca en monté et descente et au metronnome, sinon ca sert a rien.
 
il me semble qu'on l'avait poster dans l'exelent topic sur la main gauche ou yavais une pelle d'exo super.
0
0
#3
10/10/2006 13:49:24
kurt
ps: on doit travailler ca en monté et descente et au metronnome, sinon ca sert a rien.
 
il me semble qu'on l'avait poster dans l'exelent topic sur la main gauche ou yavais une pelle d'exo super.
 suremment mais je l'avais pas vu
(P.S le métronome ça va de soi comme dans tous les exercices)
0
0
#4
10/10/2006 13:52:41
exact, mais combien ici bosse au metronnome??
je dit metro, pas boite a rythme surchargée ou ligne de batterie.
0
0
#5
10/10/2006 13:57:09
Oui c'est le principe des gammes mais avec des allers et retours... en montée et en descente !! +1 kurt
Pour ce qui est du métronome, ne venez pas me dire :"oui, mais moi, aux confins de la bourgogne inférieure, je n'ai meme pas le téléphone, alors, un metronome "..
Le web a ceci de bien, c'est qu'on y trouve tout (je ne m'étendrai pas sur ce qu'il y a de pas bien sur le ouaibe, ca va encore me mettre les abeilles

Vous voulez un métronome, vous en avez un au bout du mulot !
0
0
#6
10/10/2006 14:13:17
bien ouaij zek, c'est le 1° metronnome performant sur un vieux pc comme le mien.
0
0
#7
10/10/2006 14:28:41
 oui, aussi une autre bonne technique pour soloter est de chanter ce qu'on va jouer .
0
0
#8
10/10/2006 15:03:44
 Ceci dit, je vois pas la différence entre une boîte à rythme et un métronome... ils ont la même fonction et la même fidélité.
0
0
#9
10/10/2006 15:06:15
ba le métronome est totalement neutre, ce qui permet de s'adapter à n'importe quel rythme en étant toujours dans le temps
0
0
#10
10/10/2006 15:13:03
 ouaip, le metronnome ne fait que bip bip.
la Boite A Rythme, le dnager, c'est de faire des patern de batterie pour bosser, et ca, c'est nettement moins bien que le bip bip bien neutre court et sec.
sinon une BAR peut trés bien faire l'affaire, il suffit de rester sage
0
0
#11
10/10/2006 15:31:28
non honnetement, avec le metronome tu n'es pas tenté par la facilité : si tu te gauffres tu laisses un tourne de batterie pour reprendre après... avec le metronome... ca fait un blanc.. alors tu t'accroches et tu corriges
Beaucoup plus formateur !
0
0
#12
10/10/2006 15:48:51
 euh c'est une gamme brisee descendue en fait?
en effet a faire avec toutes les gammes en montant ou descendant, au clic de preference.

sinon t'as aussi les gammes en sauts de tierces ou autres variantes.
ex: gamme de do majeur en saut de tierces, montee puis descendue
G|---------------2---4-2-5-5-2-4---2-----------------------
D|---2---3-2-5-3---5-------------5---3-5-2-3---2-----------
A|-3---5-------------------------------------5---3---------
E|---------------------------------------------------------
(j'espere que je ne me suis pas trompe car g pas ma basse sous la main )
0
0
#13
10/10/2006 15:51:31
oué mais je viens de la campage et j'ai pas internet je fait comment ? (quelquechose cloche non )

merci pour cet exo !
0
0
#14
10/10/2006 17:44:30
 sympa pour s echauffer

0
0
#15
10/10/2006 17:55:49
les gammes brisées, c'est la premiere chose qu'on doit travailler avant d'aborder les modes
0
0
#16
10/10/2006 18:10:39
 si on ajoute ca on a un echauffement super en DO majeur

0
0
#17
10/10/2006 18:30:31
 en Maj tout court meme
0
0
#18
10/10/2006 18:58:32
 j ajouterais cet exercice la qui reprend les notes des accords pour chaque degré de la gamme majeur : 

    CM7                 Dm7                   Em7                     FM7                      G7         
G-------4-4--------------5-5---------------7-7----------------9-9----------------10-10------
D---2-5-----5-2-------7------7----------9-----9---------7-10-----10-7-------9-12-------12-9-
A-3-------------3-5-8----------8-5-7-10---------10-7-8----------------8-10----------------10
E----------------------------------------------------------------------------------------------


 Am7                              Bm7b5                           CM7
----------12-12-------------------14-14-------------------16-16------------
-------14-------14-------------15-------15-----------14-17-------17-14-----
-12-15------------15-12-14-17-------------17-14-15--------------------15--
-----------------------------------------------------------------------------




0
0
#19
10/10/2006 19:08:00
J'répond pour le métronome. J'en fait 30 mins ts les jours de ce truc 
0
0
#20
10/10/2006 20:22:34
 Le premier exo, sur quel type de gamme est il basé?
0
0
#21
10/10/2006 20:34:41
 gamme brisée de C maj descendante .
0
0
#22
10/10/2006 20:40:33
 Do majeur je dirait... mais bon je suis aps un expet..

0
0
#23
10/10/2006 21:22:01
"ici c'est sur une des position de la gamme de Do majeure"

hé les gars, pour une fois que c'est moi qui le dit: il faut lire


0
0
#24
10/10/2006 21:23:44
Ah ben wai, comme le port salut !! 
0
0
#25
11/10/2006 02:14:53
riquetcatmax
 Le premier exo, sur quel type de gamme est il basé?
 t'es à la masse toi
0
0
#26
13/10/2006 17:18:04
slappingman

cette technique matrisée sur toutes les positions du manche et à une vitesse relativement rapide peu vite devenir très utile en solo

Concretement ?
0
0
#27
13/10/2006 17:28:26
 à 120 à la double ça devient simpa...
0
0
#28
13/10/2006 18:47:43
ba je c'est pas trop mais là on en voit un petit exemple à un moment vers le milieu
Lien du média
0
0
#29
13/10/2006 19:08:20
0
0

En Live

Bass13013, Grattos95 et nadine ont commenté le topic [Super Alim pour pedalboard ] de ilanonbass il y a 1 jour
Pascal'son a commenté le topic [encore un basseu] de patprob il y a 1 jour
Nofretnostress a commenté le topic [Thriller] de patprob il y a 2 jours
Patprob et Wario ont commenté le topic [[Topic COVERS], à vos basses!!!:)] de JAYSEE99 il y a 2 jours
Chico vient tout juste de rejoindre la communauté Slappyto. Bienvenue ! il y a 4 jours
Nadine a commenté le topic [Recherche Yamaha BB 2005 ou BB NE2] de dambass il y a 4 jours
Philippe59 a accepté le message de koches il y a 5 jours
Farrone vient tout juste de rejoindre la communauté Slappyto. Bienvenue ! il y a 1 semaine