ConnexionConnexionInscription
B E A D G
151 connectés Aller à Sweepyto Guitare

Tabler le solo d'Africa (Toto) de Mike PORCARO

#1
04/06/2015 21:58:27

Bonsoir,

Est-ce que quelqu'un serait assez bon pour me tabler ce solo?


https://www.youtube.com/watch?v=wMiku_OsEyw

Merci de votre retour

0
0
#2
07/06/2015 09:50:37

Il n'y a pas quelqu'un de bon qui pourrait pour me sortir cette partition de solo ?

 

Car même en ralentissant ce n'est pas facile avec la réverb !!! 

0
0
#3
07/06/2015 10:00:34

franchement franck , sort de cette idee de repiquer exactement le solo d'un artiste .

Si tu veux le reprendre et rester dans cet esprit , joue ce que toi tu sais faire et fait le groover , tu seras encore plus heureux ...........

regarde a quel endroit il commence le solo , recherche la note du debut du groove , puis essaye de retrouver les notes et fait ta sauce ................

Sa main ne bouge pas enormement du haut du manche donc tu devrais trouver ..............lol

0
0
#4
07/06/2015 10:23:05

Ok je fais essayer de faire comme tu dis.

Mais il est tellement beau que j'aurais voulu une tablature.

J'ai trouvé 2 vidéos mais même avec cela répliquer est un peu difficile.

 

J'ai écouté un solo de Nathan East. Même si c'est un excellent bassiste aussi 

j'aime un peu moins le solo.

 

En tout cas merci pour ton retour

0
0
#5
07/06/2015 10:33:33

 pourtant simple à l'oreille .. ( écouter et se chanter la partie jusqu'à avoir les notes dans la tête et rechercher sur la  basse après .)

 

je peux te détailler les grosses parties ,  à 0:39  do# sur la corde de Si   et plan

 

G|----------------|--------------|----------------|----------------|
D|-------2---4---5--4--2---------|------------|----------------|
A|----4--------------------x4------|---4---2----------|----------------|
E|----------------|----------------|----------4-et 2 sur B-----|----------------|
 je te fais le reste après  tu me dira si c'est clair ..

0
0
#6
07/06/2015 21:35:54
Les tablatures c'est de la merde
0
0
#7
13/06/2015 15:18:01
?
superpapy
Les tablatures c'est de la merde

 c'est pas que c'est de la merde , ça a l'intérêt de savoir sur quelle note poser son doigt , par contre le rythme  ..

la partition à ses revers  aussi ,  peut être la bonne note , mais où la jouer exactement ????

l'idéal est ce qu'on trouve maintenant   part/tab  , enfin si l'auteur à de bonnes oreilles et connait les positions du musicien , pas mal de coquilles dans les relevés , dans les tabs aussi tu me dira  ... 

l'idéal étant de faire aussi marcher ses oreilles pour comparer , à l'inverse , l'oreille n'attrape pas tout et il faut de l'aide parfois ..

 

0
0
#8
13/06/2015 15:56:03
G|----------------|----------------|----------------|----------------|
D|----------------|----------------|----------------|----------------|
A|-----4--2--------2-|------------2---4-|----------|----------------|
E|---4------4---2----4---2--0---4--------|---------|----------------|

 

 

G|----------------|----------------|----------------|----------------|
D|----------------|----------------|----------------|----------------|
A|------4--2--------|--2--------------|----------------|-----------|
E|---4--------4--2---|----4---2--0--4--0---et2 sur le B||----------|
 

plan à 0:55    1) la première tab  et 2) la deuxième  en boucle !! 

 

 

 

0
0
#9
13/06/2015 16:11:10

suite à 1:15   même chose qu'au dessus , à l'octave .

 

G|----------------|----------------|----------------|----------------|
D|----11-9------9-----|----------9---11---|----------------|-------|
A|--11----11--9---11--9---|-11---------------|---------------|
E|----------------|------12----------|----------------|----------|
G|----------------|----------------|----------------|----------------|
D|-----11--9--------9-|----------------|----------------|---------|
A|--11-------11--9-----11-------9---11------|-------------------|
E|----------------|--------12--------|-12----9---------------|
  

0
0
#10
13/06/2015 16:16:07
?
pat

suite à 1:15   même chose qu'au dessus , à l'octave .

 

G|----------------|----------------|----------------|----------------|
D|----11-9------9-----|----------9---11---|----------------|-------|
A|--11----11--9---11--9---|-11---------------|---------------|
E|----------------|------12----------|----------------|----------|
G|----------------|----------------|----------------|--------------|
D|-----11--9--------9-|----------------|----------------|---------|
A|--11-------11--9-----11-9-------11------|-------------------|
E|----------------|-------- 12--------|-12----9---------------|
  

0
0
#11
13/06/2015 18:06:43

Merci beaucoup

 

Je vais pouvoir terminer de tabler dans Guitare Pro ...

0
0
#12
22/06/2015 23:30:18
Putain j'ai failli rater ce topic... Je vais faire un heureux, là !

Voilà ce que j'avais tabbé il y a quelques années : c'est pas complet et c'est sûrement pas complètement juste, mais c'est à peu près fidèle !

http://cvanaret.free.fr/basse/Toto%20-%20Africa%20Bass%20Solo.gp5
0
+2
#13
23/06/2015 10:43:59
?
superpapy
Les tablatures c'est de la merde

 c'est ce commentaire qui est merdique, comme souvent chez toi vieux réac' et je  pèse mes mots  

 

 

0
0
#15
23/06/2015 19:22:44
?
charlie
Putain j'ai failli rater ce topic... Je vais faire un heureux, là !

Voilà ce que j'avais tabbé il y a quelques années : c'est pas complet et c'est sûrement pas complètement juste, mais c'est à peu près fidèle !

http://cvanaret.free.fr/basse/Toto%20-%20Africa%20Bass%20Solo.gp5

 tiens tu tombes bien , je cherchais ton groupe sur you t , mais je n'ai pas trouvé , peux tu coller

un lien à la suite ?   

 sinon chouette GP ..

 

 

0
0
#16
23/06/2015 20:49:58

Charlie tu tombes pic ...

 

Et là oui tu fais un heureux ...

 

Merci

0
0
#17
23/06/2015 21:18:02

un peu de pub gratuite pour m'sieur Charlie  ( j'ai fini par trouver  cette jolie reprise )

https://www.youtube.com/watch?v=6WvDZGk_vWo

0
0
#18
27/06/2015 00:02:27
Merci Pat !
NB : les instrus ont été enregistrés en sortie de table, sauf la basse... à cause d'un bug.
J'ai dû la ré-engistrer dans mon salon, et mon pianiste n'a pas recalé ça très bien (l'intro est horrible )
0
0

En Live

Cell, Poppyto, Groumph! et grobass ont commenté le topic [La mort de Slappyto?] de kurt il y a 2 jours
Cell et Poppy ont voté pour le message de Poppyto il y a 3 jours
Cell, MasterFailure, Emerald, Groumph!, grobass et Poppyto ont commenté le topic [Le Topic du Freepost 7] de Vikie il y a 3 jours
Cell a voté pour le message de MasterFailure il y a 5 jours
Cell a voté pour le message de grobass il y a 5 jours
Cell et grobass ont commenté le topic [une chope s'il vous plait !] de Adrien21 il y a 5 jours
Modérateurs et johanson ont commenté le topic [Quelle pédale Detune up/down pour basse ?] de pk.grs il y a 2 semaines
Groumph! a voté pour le message de MasterFailure il y a 2 semaines
Bilbaroud a voté pour le message de Poppyto il y a 4 semaines
BeamboomerOLD vient tout juste de rejoindre la communauté Slappyto. Bienvenue ! il y a 1 mois