ConnexionConnexionInscription
B E A D G
131 connectés Aller à Sweepyto Guitare

Intro de for whom the bells tolls...

#1
14/05/2007 12:03:18
Bonjour à tous,

j'ai dégoté cette vidéo (que sans doute un bon nombre d'entre vous doivent déjà connaître...) :
http://youtube.com/watch?v=7KpxOmksHrY

Je cherche à trouver la tablature basse correspondante notamment à partir de 32 secondes du début...
Elle claque cette intro ^^

Voilà mon idée de départ après je suis cuit et je sollicite votre aide:

G|---19-18-17-16---------|----------------|----------------|----------------|
D|------------------------|----------------|----------------|----------------|
A|------------------------|----------------|----------------|----------------|
E|-0----------------------|----------------|----------------|----------------|

 

Merci à tous !
0
0
#2
14/05/2007 12:39:54
G|--------------19-18-17-16-------19-------
D|---------------------------17-16----------
A|------------------------------------17-16-
E|-3-3--3-3-0-------------------------------

Ca doit etre un truc comme ca ^^
0
0
#3
14/05/2007 12:48:52
Rocka
G|--------------19-18-17-16-------19-------
D|---------------------------17-16----------
A|------------------------------------17-16-
E|-3-3--3-3-0-------------------------------

Ca doit etre un truc comme ca ^^
G|-------------19-18-17-16-------19-----
D|------------------- -----17-16----------
A|------------------------------------17-16-
E|-2-2--2-2-0------------------------------

Corrigé légérement :) Me semble là c'est bon :p
0
0
#4
14/05/2007 12:57:14
 oups oui pardon
0
0
#5
14/05/2007 18:39:19
0
0
#6
14/05/2007 18:41:13
G|------------17/19-18-17-16-19-16---------19------------
D|------------------- ----------------17-16----------------
A|----------------------------------------------17-----------
E|-2-2--2-2-0--------------------------------------2-2--2-2-0

C'est une version jouée en live, jla trouve un peu mieu.
0
0
#7
14/05/2007 18:48:27
G|------------19-18-17-16--16-------19-------------------------------|
D|----------------------------17-16----------------------------------|
A|------------------------------------17-16--------------------------|
E|-2-2--2-2-0--------------------------------------------------------|
voila je crois que ça c'est bon
0
0
#8
14/05/2007 20:58:06
Tiens ! C'est l'un des trucs que je jouais souvent y'a quelques temps !
0
0
#9
15/05/2007 15:38:14
Ok merci à tous c'est cool ça en jette :)
Par contre j'ai un pédalier Zoom b2.1u et je cherche à obtenir le son de cliff... Si quelqu'un a déjà quelques réglages à me filer ça serait cool (pour la wha et la fuzz...) Merci !
0
0
#10
15/05/2007 17:34:51
le E -2-2--2-2-0 c'est une guitare la basse le fait pas normalement , aprés c'est toi qui vois .
Pour le son de cliff jcrois pas qu'il est de wha, mais beaucoup de fuzz oui.
0
0
#11
10/09/2007 14:00:10
C'est un Fa bécarre qu'il joue, pas un Fa # , sinon on aurait pas ce son "méchant" ^^.
0
0
#12
28/04/2008 08:00:00
il avait bien une wah par dessus la disto, c'est d'ailleurs ce qui avait retenu l'attention de James Heltfield et de Lars Ulrich quand ils ont cherché un bassiste... Quand on tape sur le mi à vide juste avant d'enfoncer la wah pour les chromatismes, si la disto est suffisamment bien paramétré, on arriverait presque à avoir ce son...
0
0
#13
28/04/2008 08:03:52

0
0
#14
28/04/2008 13:43:33
 pareil
et en plus il est pas dedans...
0
0
#15
28/04/2008 13:59:50
Pour bien le jouer il faut avoir de longs cheveux qui tournent à la noire.
0
0
#16
28/04/2008 17:20:09
Il utilisais la disto de son mesa principalement... dur dur de trouver la même...
0
0
#17
28/04/2008 18:04:41
 Tu es sûre de ton coup là?

j'ai vu sur un site ( http://www.metallica-rml.fr/ pour ne pas le citer) qu'il utilisait une Big Muff Pi d'Electro Harmonix.

Possédant la Little Big Muff, je pense que c'est fort probable puisque le son est quand même vachement ressemblant.
0
0
#18
29/04/2008 00:21:37
d'après bassiste mag (cf numéro 14 d'octobre novembre 2007), il utilisait bien une big muff, et coté wah une power wah boost de morley...

sinon avec la bass juice de t-rex c'est sympa aussi... =D
0
0
#19
29/04/2008 00:37:49
dégueulasse !
0
0
#20
29/04/2008 09:47:52
c'est peut-etre degueulasse (selon les gouts) mais quelle puissance :)
0
0

En Live

Ray a commenté le topic [G&L M2500 parfait état ] de Ray il y a 4 heures
Cédric Idf vient tout juste de rejoindre la communauté Slappyto. Bienvenue ! il y a 14 heures
Vox 22 vient tout juste de rejoindre la communauté Slappyto. Bienvenue ! il y a 1 jour
Wario a commenté le topic [GL Kiloton US 890€] de Wario il y a 1 jour
Freinet vient tout juste de rejoindre la communauté Slappyto. Bienvenue ! il y a 1 jour
Serge blessing vient tout juste de rejoindre la communauté Slappyto. Bienvenue ! il y a 2 jours
Vin'z du 50 vient tout juste de rejoindre la communauté Slappyto. Bienvenue ! il y a 3 jours
Gozo et koches ont commenté le topic [vds WARWICK Corvette std MIG 600€] de gozo il y a 3 jours