ConnexionConnexionInscription
B E A D G
157 connectés Aller à Sweepyto Guitare

Changement de "case"

#1
22/08/2007 16:20:58
Hay les gens !

Bon voilà avec mes *magnifiques* progrès et le fait aussi que pendant 1 mois et demi j'ai pas touché à ma basse (), j'ai finalement passé Seven Nation Army plusieurs fois (oui ça va je sais c'est "trop facile", au bout de 8 mois je devrais quand même gérer un peu plus ), mais il presiste une petite gène...
Voici donc un extrait de la tablature au "moment chiant" :

G:|-------------------------|
D:|-------------------------|
A:|--7--7--10--7--5--3--2--|
E:|-------------------------|

Le problème que j'ai c'est au passage entre la case 5 et 3... Un ptit bruit inévitable du doigt qui glisse sur la corde... Quasi impossible à virer... Ou alors je suis une merde

Merci d'avance pour votre aide
0
0
#2
22/08/2007 16:23:56
essaye la 8é case en mi a la place de la 3é en la... le timbre risque un peu de differer, sinon un glissé s'il est fait avec assurance ne devrait pas etre trop genant non? la c'est mon experience de guitariste qui parle...
0
0
#3
22/08/2007 16:25:43
Non mais le glissé est assuré ça c'est clair mais bon voilà ce que me dérange c'est que dans la chanson y'en a pas (et en même temps c'est un gratteux donc ouééé...)
0
0
#4
22/08/2007 16:27:13
 

comme le dit perrycox, tu peux faire :

G---------------------------------------------------------
D--------------------------------------------------------
A----7--7--10--7---------------------------------------------------
E------------------10--8--7--------------------------------

au lieu de :

G:|-------------------------|
D:|-------------------------|
A:|--7--7--10--7--5--3--2--|
E:|-------------------------|


ça t'évitera de démancher, mais t'aura à plus appuyer sur les corde, comme c'est sur la corde de Mi !

0
0
#5
22/08/2007 16:28:50
T'façon je kiffe les grosses cordes

Par contre en pratique c'est à tester, ça me paraît plus chaud que la ptite ligne simple que j'avais avant tout sur la même corde  xD
0
0
#6
22/08/2007 16:40:08
 Ca te fera travailler ton démancher
0
0
#7
22/08/2007 16:45:28
sinon vire du High , on entendra moins le bruit des doigts sur les cordes !
0
0
#8
22/08/2007 16:52:42
cette chanson je l'ai bossé sur a peu pres toutes les config possibles, tout sur la corde de LA , sur LA et MI, voir sur LA et RE ...
La version originale c'est quand tu joue tout sur la corde de LA, et la difference de timbre se fait beaucoup sentir (je trouve) si tu change en passant sur MI
0
0
#9
22/08/2007 17:08:41
 recherche toujours la simplicité !
0
0
#10
22/08/2007 17:44:12
te casses pas la tete avec ça ^^ i a pas de bassiste dans ce groupe, donc la base ....
0
0
#11
22/08/2007 18:15:14
 ouai, puis la batterie, meme pour avoir touché 2fois 2heure depuis 5ou6ans..je suis sur je te la fais dès la premiere fois .

bon ympa a ecouter...une fois...
0
0
#12
22/08/2007 21:02:41
Merci tout le monde de m'encourager comme ça... Ca fait plaisir...

-_-'
0
0
#13
22/08/2007 21:12:14
Faut pas te faire chier avec des demanchés, tu peux le faire sur 3 cordes et 3 cases, ça doit donner de memoire qqchose du genre

G|-----0----------|----------------|----------------|----------------|
D|-2-2---2-0------|----------------|----------------|----------------|
A|-----------3-2--|----------------|----------------|----------------|
E|----------------|----------------|----------------|----------------|

Et là plus de problème
0
0
#14
22/08/2007 21:40:42
G|------0---------|----------------|----------------|----------------|
D|--2-2---2-------|--0-------------|----------------|----------------|
A|----------------|----3--2--------|----------------|----------------|
E|----------------|----------------|----------------|----------------|
Dans le genre "j'évite le démanché tant que je peux" c'est pas mal non ?
0
0
#15
22/08/2007 21:41:00

meeerde doublé xD

0
0

En Live

Johanson et priyanka ont commenté le topic [Quelle pédale Detune up/down pour basse ?] de pk.grs il y a 1 semaine
Emerald, grobass, MasterFailure et Poppyto ont commenté le topic [Le Topic du Freepost 7] de Vikie il y a 1 semaine
BeamboomerOLD vient tout juste de rejoindre la communauté Slappyto. Bienvenue ! il y a 1 semaine
Poppyto a voté pour le message de grobass il y a 1 semaine
MasterFailure a voté pour le message de Poppyto il y a 2 semaines
Grobass, Samy et Poppyto ont commenté le topic [La mort de Slappyto?] de kurt il y a 2 semaines
Grobass a commenté le topic [une chope s'il vous plait !] de Adrien21 il y a 2 semaines
Escapegames vient tout juste de rejoindre la communauté Slappyto. Bienvenue ! il y a 2 semaines
Testovate vient tout juste de rejoindre la communauté Slappyto. Bienvenue ! il y a 2 semaines
Insulevel vient tout juste de rejoindre la communauté Slappyto. Bienvenue ! il y a 2 semaines