ConnexionConnexionInscription
B E A D G
159 connectés Aller à Sweepyto Guitare

Jamiroquai - Space cowboy (pont)

Publié par le
30/03/2006
29156 vues
Avancé 1
Vitesse NormaleNormal speed Vitesse RalentieSlow down speed
G--------------------------|-----------------------|
D-----------------4-3------|--------------4-4-4----|
A--6--4-5-6-4-5-6-----7-6--|--4-5-6-------------6--|
E--------------------------|--------X-4-6----------|

G-----------------------|--------------6---8-------6----|
D--------------4-3------|--------6-H-8---8---6-H-8------|
A--4-5-6-4-5-6-----7-6--|-4-5-6----------------------6--|
E-----------------------|-------------------------------|

G-----------------------|-----------------------|
D--------------4-3------|--------------4-4-4----|
A--4-5-6-4-5-6-----7-6--|--4-5-6-------------6--|
E-----------------------|--------X-4-6----------|

G-----------------------|-----------------------|
D--------------4-3----0-|-1--1-2-3--3-4-/-6-----|
A--4-5-6-4-5-6------4---|-----------------------|
E-----------------------|--------------------4--|
ce n'est de ne pas ralentir et de le prendre lentement au départ pour se le mettre dans les doigts, et en particulier à la quatrième mesure avec les hammers qui doivent bien sonner et le saut de corde qui n'est pas évident à placer à la fin de cette mesure. Faites bien attention aux changements de position sur le manche car si vous n'anticipez pas vous allez vous retrouver bloqué et hop-là !!! dite adieu au riff ;-) Ensuite sur la dernière mesure pensez à laisser sonner l'avant dernière note quand vous jouez la dernière, hooooo que c'est bôôôô ;-) !!!

0 Commentaires : réagissez !

1 2 3 4 5
0 notes
Aucun commentaire !

En Live

Pitoune vient tout juste de rejoindre la communauté Slappyto. Bienvenue ! il y a 1 heure
Papy.vtt vient tout juste de rejoindre la communauté Slappyto. Bienvenue ! il y a 15 heures
Gaiol et escaliyo ont commenté le topic [Où est passé Broz-Reggae-Tabs ?????] de escaliyo il y a 16 heures
Yaip et grobass ont commenté le topic [Association de Mots] de Claypool-Fish! il y a 18 heures
Vikpil vient tout juste de rejoindre la communauté Slappyto. Bienvenue ! il y a 1 jour
Valfaya vient tout juste de rejoindre la communauté Slappyto. Bienvenue ! il y a 1 jour