ConnexionConnexionInscription
B E A D G
117 connectés Aller à Sweepyto Guitare

Jamiroquai - When you gonna learn

Publié par le
30/03/2006
34409 vues
Avancé 2
Vitesse NormaleNormal speed Vitesse RalentieSlow down speed
G--------5--5--------|---------------------|
D-----5--------0-1-2-|-3-----------3-------|
A--3-----------------|----X-3-X------X-----|
E--------------------|----------1------1-X-|

G------------------|-------------3-----4--|
D-------2----------|-------3--------------|
A----2-------------|----3-----1-----2-----|
E-0--------0-X-0-X-|-1--------------------|

G--------5--5--------|---------------------|
D-----5--------0-1-2-|-3-----------3-------|
A--3-----------------|----X-3-X------X-----|
E--------------------|----------1------1-X-|

G------------------|-------------3-----4--|
D-------2----------|-------3--------------|
A----2-------------|----3-----1-----2-----|
E-0--------0-X-0-X-|-1--------------------|

G-----3-----3-----3-----3--|-----7-------6---6--|
D--------------------------|---------------X----|
A--1-----1-----1-----1-----|--5-----X-4---------|
E--------------------------|--------------------|

G-----5-----5-------------5--|-----6------------|
D-------------------5--------|---------------3--|
A--3-----3-----X-------3-----|--4----X----3-----|
E----------------3-----------|---------1--------|

G-----3-----3-----3-----3--|-----7-------6---6--|
D--------------------------|---------------X----|
A--1-----1-----1-----1-----|--5-----X-4---------|
E--------------------------|--------------------|

G-----5-----5-------------5--|-----6------------|------|
D-------------------5--------|---------------3--|------|
A--3-----3-----X-------3-----|--4----X----3-----|--(1)-|
E----------------3-----------|---------1--------|------|
C'est un de mes morceaux préférés avec too young to die, whaouuu ca groove terrible ! si on arrive à faire une compo comme celle là une fois dans sa vie ... il y a de quoi être heureux jusqu'à la fin de ses jours ... bon trève de bavardages :-) et passons aux choses sérieuses. Si vous n'avez toujours pas saisie à quoi servent les notes mortes je crois que c'est le moment ou jamais de lancer la vidéo et d'écouter le riff, .... vous n'entendez rien ? bien sûre que si, tout le groove de ce riff repose la dessus et aussi sur le fait que notre ami Stuart joue des notes très courtes en melant notes sur le temps et notes à contre temps. Dans un premier temps aidez vous de la vidéo au ralenti puis immiscez vous dans ce riff endiablé à vitesse réelle, .... c'est le pied !!! ;-)

One of my favourite track ever, with too young to die?whaouuu, what a mean groove ! Producing such a great composition only once in a life time? one could then be happy until the end of his days! Well, lets shut up and get right into serious things. If you still dont fully get the interest of ghost notes, I think its about time to launch the video sample and listen to the line itself? cant hear anything? Of course they are, the whole groove relies on them and the fact that our friend Stuart plays very short notes, mixing on and off beat notes. For the first step, slow down the video to help? then get into this kickinass line at full speed? that true is the dogs bollocks!!

1 Commentaire

1 2 3 4 5
1 note
Notes pour When you gonna learn - Jamiroquai - Cours de basse vidéo | Slappyto : 5/5 sur 1 note
#1
23/03/2011 11:45:24
Merci! Vraiment génial ce morceau  
0
0

En Live

Serge blessing vient tout juste de rejoindre la communauté Slappyto. Bienvenue ! il y a 14 heures
Vin'z du 50 vient tout juste de rejoindre la communauté Slappyto. Bienvenue ! il y a 1 jour
Gozo et koches ont commenté le topic [vds WARWICK Corvette std MIG 600€] de gozo il y a 1 jour
Off67 vient tout juste de rejoindre la communauté Slappyto. Bienvenue ! il y a 2 jours
Grobass, nama kemono, popolito et Wario ont commenté le topic [La mort de Slappyto?] de kurt il y a 2 jours
Mickey738 vient tout juste de rejoindre la communauté Slappyto. Bienvenue ! il y a 2 jours
Tofe a commenté le topic [Aftershock ] de madamaris il y a 2 jours